  0
SECTION
  2
HEADER
  9
$ACADVER
  1
AC1015
  9
$ACADMAINTVER
 70
     6
  9
$DWGCODEPAGE
  3
ANSI_1254
  9
$INSBASE
 10
0.0
 20
0.0
 30
0.0
  9
$EXTMIN
 10
0.0
 20
0.0
 30
0.0
  9
$EXTMAX
 10
279.4
 20
215.9
 30
0.0
  9
$LIMMIN
 10
0.0
 20
0.0
  9
$LIMMAX
 10
279.4
 20
215.9
  9
$ORTHOMODE
 70
     0
  9
$REGENMODE
 70
     1
  9
$FILLMODE
 70
     1
  9
$QTEXTMODE
 70
     0
  9
$MIRRTEXT
 70
     1
  9
$LTSCALE
 40
1.0
  9
$ATTMODE
 70
     1
  9
$TEXTSIZE
 40
3.5
  9
$TRACEWID
 40
1.0
  9
$TEXTSTYLE
  7
Standard
  9
$CLAYER
  8
0
  9
$CELTYPE
  6
ByLayer
  9
$CECOLOR
 62
   256
  9
$CELTSCALE
 40
1.0
  9
$DISPSILH
 70
     0
  9
$DIMSCALE
 40
1.0
  9
$DIMASZ
 40
3.5
  9
$DIMEXO
 40
1.0
  9
$DIMDLI
 40
3.75
  9
$DIMRND
 40
0.0
  9
$DIMDLE
 40
0.0
  9
$DIMEXE
 40
1.0
  9
$DIMTP
 40
0.0
  9
$DIMTM
 40
0.0
  9
$DIMTXT
 40
2.8222222222
  9
$DIMCEN
 40
2.5
  9
$DIMTSZ
 40
0.0
  9
$DIMTOL
 70
     0
  9
$DIMLIM
 70
     0
  9
$DIMTIH
 70
     1
  9
$DIMTOH
 70
     1
  9
$DIMSE1
 70
     0
  9
$DIMSE2
 70
     0
  9
$DIMTAD
 70
     1
  9
$DIMZIN
 70
     0
  9
$DIMBLK
  1

  9
$DIMASO
 70
     1
  9
$DIMSHO
 70
     1
  9
$DIMPOST
  1

  9
$DIMAPOST
  1

  9
$DIMALT
 70
     0
  9
$DIMALTD
 70
     3
  9
$DIMALTF
 40
0.0393700787
  9
$DIMLFAC
 40
1.0
  9
$DIMTOFL
 70
     1
  9
$DIMTVP
 40
0.0
  9
$DIMTIX
 70
     0
  9
$DIMSOXD
 70
     0
  9
$DIMSAH
 70
     0
  9
$DIMBLK1
  1

  9
$DIMBLK2
  1

  9
$DIMSTYLE
  2
ISO-25
  9
$DIMCLRD
 70
     0
  9
$DIMCLRE
 70
     0
  9
$DIMCLRT
 70
     0
  9
$DIMTFAC
 40
1.0
  9
$DIMGAP
 40
1.524
  9
$DIMJUST
 70
     0
  9
$DIMSD1
 70
     0
  9
$DIMSD2
 70
     0
  9
$DIMTOLJ
 70
     0
  9
$DIMTZIN
 70
     0
  9
$DIMALTZ
 70
     0
  9
$DIMALTTZ
 70
     0
  9
$DIMUPT
 70
     0
  9
$DIMDEC
 70
     2
  9
$DIMTDEC
 70
     2
  9
$DIMALTU
 70
     2
  9
$DIMALTTD
 70
     3
  9
$DIMTXSTY
  7
Standard
  9
$DIMAUNIT
 70
     0
  9
$DIMADEC
 70
     2
  9
$DIMALTRND
 40
0.0
  9
$DIMAZIN
 70
     0
  9
$DIMDSEP
 70
    44
  9
$DIMATFIT
 70
     3
  9
$DIMFRAC
 70
     0
  9
$DIMLDRBLK
  1

  9
$DIMLUNIT
 70
     2
  9
$DIMLWD
 70
    -2
  9
$DIMLWE
 70
    -2
  9
$DIMTMOVE
 70
     0
  9
$LUNITS
 70
     2
  9
$LUPREC
 70
     2
  9
$SKETCHINC
 40
1.0
  9
$FILLETRAD
 40
10.0
  9
$AUNITS
 70
     0
  9
$AUPREC
 70
     2
  9
$MENU
  1
.
  9
$ELEVATION
 40
0.0
  9
$PELEVATION
 40
0.0
  9
$THICKNESS
 40
0.0
  9
$LIMCHECK
 70
     0
  9
$CHAMFERA
 40
0.0
  9
$CHAMFERB
 40
0.0
  9
$CHAMFERC
 40
0.0
  9
$CHAMFERD
 40
0.0
  9
$SKPOLY
 70
     0
  9
$TDCREATE
 40
2460745.646856088
  9
$TDUCREATE
 40
2460745.521856088
  9
$TDUPDATE
 40
2460745.646856273
  9
$TDUUPDATE
 40
2460745.521856273
  9
$TDINDWG
 40
0.0000000116
  9
$TDUSRTIMER
 40
0.0000000116
  9
$USRTIMER
 70
     1
  9
$ANGBASE
 50
0.0
  9
$ANGDIR
 70
     0
  9
$PDMODE
 70
     0
  9
$PDSIZE
 40
-1.0
  9
$PLINEWID
 40
0.0
  9
$SPLFRAME
 70
     0
  9
$SPLINETYPE
 70
     6
  9
$SPLINESEGS
 70
     8
  9
$HANDSEED
  5
126
  9
$SURFTAB1
 70
     6
  9
$SURFTAB2
 70
     6
  9
$SURFTYPE
 70
     6
  9
$SURFU
 70
     6
  9
$SURFV
 70
     6
  9
$UCSBASE
  2

  9
$UCSNAME
  2

  9
$UCSORG
 10
0.0
 20
0.0
 30
0.0
  9
$UCSXDIR
 10
1.0
 20
0.0
 30
0.0
  9
$UCSYDIR
 10
0.0
 20
1.0
 30
0.0
  9
$UCSORTHOREF
  2

  9
$UCSORTHOVIEW
 70
     0
  9
$UCSORGTOP
 10
0.0
 20
0.0
 30
0.0
  9
$UCSORGBOTTOM
 10
0.0
 20
0.0
 30
0.0
  9
$UCSORGLEFT
 10
0.0
 20
0.0
 30
0.0
  9
$UCSORGRIGHT
 10
0.0
 20
0.0
 30
0.0
  9
$UCSORGFRONT
 10
0.0
 20
0.0
 30
0.0
  9
$UCSORGBACK
 10
0.0
 20
0.0
 30
0.0
  9
$PUCSBASE
  2

  9
$PUCSNAME
  2

  9
$PUCSORG
 10
0.0
 20
0.0
 30
0.0
  9
$PUCSXDIR
 10
1.0
 20
0.0
 30
0.0
  9
$PUCSYDIR
 10
0.0
 20
1.0
 30
0.0
  9
$PUCSORTHOREF
  2

  9
$PUCSORTHOVIEW
 70
     0
  9
$PUCSORGTOP
 10
0.0
 20
0.0
 30
0.0
  9
$PUCSORGBOTTOM
 10
0.0
 20
0.0
 30
0.0
  9
$PUCSORGLEFT
 10
0.0
 20
0.0
 30
0.0
  9
$PUCSORGRIGHT
 10
0.0
 20
0.0
 30
0.0
  9
$PUCSORGFRONT
 10
0.0
 20
0.0
 30
0.0
  9
$PUCSORGBACK
 10
0.0
 20
0.0
 30
0.0
  9
$USERI1
 70
     0
  9
$USERI2
 70
     0
  9
$USERI3
 70
     0
  9
$USERI4
 70
     0
  9
$USERI5
 70
     0
  9
$USERR1
 40
0.0
  9
$USERR2
 40
0.0
  9
$USERR3
 40
0.0
  9
$USERR4
 40
0.0
  9
$USERR5
 40
0.0
  9
$WORLDVIEW
 70
     1
  9
$SHADEDGE
 70
     3
  9
$SHADEDIF
 70
    70
  9
$TILEMODE
 70
     1
  9
$MAXACTVP
 70
    64
  9
$PINSBASE
 10
0.0
 20
0.0
 30
0.0
  9
$PLIMCHECK
 70
     0
  9
$PEXTMIN
 10
1.0000000000E+20
 20
1.0000000000E+20
 30
1.0000000000E+20
  9
$PEXTMAX
 10
-1.0000000000E+20
 20
-1.0000000000E+20
 30
-1.0000000000E+20
  9
$PLIMMIN
 10
0.0
 20
0.0
  9
$PLIMMAX
 10
420.0
 20
297.0
  9
$UNITMODE
 70
     0
  9
$VISRETAIN
 70
     1
  9
$PLINEGEN
 70
     0
  9
$PSLTSCALE
 70
     1
  9
$TREEDEPTH
 70
  3020
  9
$CMLSTYLE
  2
Standard
  9
$CMLJUST
 70
     0
  9
$CMLSCALE
 40
20.0
  9
$PROXYGRAPHICS
 70
     1
  9
$MEASUREMENT
 70
     1
  9
$CELWEIGHT
370
    -1
  9
$ENDCAPS
280
     0
  9
$JOINSTYLE
280
     0
  9
$LWDISPLAY
290
     1
  9
$INSUNITS
 70
     4
  9
$HYPERLINKBASE
  1

  9
$STYLESHEET
  1

  9
$XEDIT
290
     1
  9
$CEPSNTYPE
380
     0
  9
$PSTYLEMODE
290
     1
  9
$FINGERPRINTGUID
  2
{cddb99b2-2735-47aa-b90c-f18b85a7e76b}
  9
$VERSIONGUID
  2
{FAEB1C32-E019-11D5-929B-00C0DF256EC4}
  9
$EXTNAMES
290
     1
  9
$PSVPSCALE
 40
0.0
  9
$OLESTARTUP
290
     0
  0
ENDSEC
  0
SECTION
  2
CLASSES
  0
CLASS
  1
ACDBDICTIONARYWDFLT
  2
AcDbDictionaryWithDefault
  3
ObjectDBX Classes
 90
        0
280
     0
281
     0
  0
CLASS
  1
VISUALSTYLE
  2
AcDbVisualStyle
  3
ObjectDBX Classes
 90
     4095
280
     0
281
     0
  0
CLASS
  1
MATERIAL
  2
AcDbMaterial
  3
ObjectDBX Classes
 90
     1153
280
     0
281
     0
  0
CLASS
  1
SCALE
  2
AcDbScale
  3
ObjectDBX Classes
 90
     1153
280
     0
281
     0
  0
CLASS
  1
TABLESTYLE
  2
AcDbTableStyle
  3
ObjectDBX Classes
 90
     4095
280
     0
281
     0
  0
CLASS
  1
MLEADERSTYLE
  2
AcDbMLeaderStyle
  3
ACDB_MLEADERSTYLE_CLASS
 90
     4095
280
     0
281
     0
  0
CLASS
  1
SUN
  2
AcDbSun
  3
SCENEOE
 90
     1153
280
     0
281
     0
  0
CLASS
  1
ACDBPLACEHOLDER
  2
AcDbPlaceHolder
  3
ObjectDBX Classes
 90
        0
280
     0
281
     0
  0
CLASS
  1
LAYOUT
  2
AcDbLayout
  3
ObjectDBX Classes
 90
        0
280
     0
281
     0
  0
ENDSEC
  0
SECTION
  2
TABLES
  0
TABLE
  2
VPORT
  5
8
330
0
100
AcDbSymbolTable
 70
     1
  0
VPORT
  5
29
330
8
100
AcDbSymbolTableRecord
100
AcDbViewportTableRecord
  2
*Active
 70
     0
 10
0.0
 20
0.0
 11
1.0
 21
1.0
 12
139.7
 22
107.95
 13
0.0
 23
0.0
 14
10.0
 24
10.0
 15
10.0
 25
10.0
 16
0.0
 26
0.0
 36
1.0
 17
0.0
 27
0.0
 37
0.0
 40
215.9
 41
1.2941176471
 42
50.0
 43
0.0
 44
0.0
 50
0.0
 51
0.0
 71
     0
 72
  2000
 73
     1
 74
     3
 75
     0
 76
     0
 77
     0
 78
     0
281
     0
 65
     1
110
0.0
120
0.0
130
0.0
111
1.0
121
0.0
131
0.0
112
0.0
122
1.0
132
0.0
 79
     0
146
0.0
  0
ENDTAB
  0
TABLE
  2
LTYPE
  5
5
330
0
100
AcDbSymbolTable
 70
     6
  0
LTYPE
  5
14
330
5
100
AcDbSymbolTableRecord
100
AcDbLinetypeTableRecord
  2
ByBlock
 70
     0
  3

 72
    65
 73
     0
 40
0.0
  0
LTYPE
  5
15
330
5
100
AcDbSymbolTableRecord
100
AcDbLinetypeTableRecord
  2
ByLayer
 70
     0
  3

 72
    65
 73
     0
 40
0.0
  0
LTYPE
  5
16
330
5
100
AcDbSymbolTableRecord
100
AcDbLinetypeTableRecord
  2
Continuous
 70
     0
  3
Solid line
 72
    65
 73
     0
 40
0.0
  0
LTYPE
  5
6E
330
5
100
AcDbSymbolTableRecord
100
AcDbLinetypeTableRecord
  2
HIDDEN
 70
     0
  3
Hidden __ __ __ __ __ __ __ __ __ __ __ __ __ __
 72
    65
 73
     2
 40
1.905
 49
1.27
 74
     0
 49
-0.635
 74
     0
  0
LTYPE
  5
6F
330
5
100
AcDbSymbolTableRecord
100
AcDbLinetypeTableRecord
  2
PHANTOM
 70
     0
  3
Phantom ______  __  __  ______  __  __  ______
 72
    65
 73
     6
 40
12.7
 49
6.35
 74
     0
 49
-1.27
 74
     0
 49
1.27
 74
     0
 49
-1.27
 74
     0
 49
1.27
 74
     0
 49
-1.27
 74
     0
  0
LTYPE
  5
70
330
5
100
AcDbSymbolTableRecord
100
AcDbLinetypeTableRecord
  2
CENTER
 70
     0
  3
Center ____ _ ____ _ ____ _ ____ _ ____ _ ____
 72
    65
 73
     4
 40
10.16
 49
6.35
 74
     0
 49
-1.27
 74
     0
 49
1.27
 74
     0
 49
-1.27
 74
     0
  0
LTYPE
  5
71
330
5
100
AcDbSymbolTableRecord
100
AcDbLinetypeTableRecord
  2
CENTERX2
 70
     0
  3
Center (2x) ________  __  ________  __  _____
 72
    65
 73
     4
 40
20.32
 49
12.7
 74
     0
 49
-2.54
 74
     0
 49
2.54
 74
     0
 49
-2.54
 74
     0
  0
LTYPE
  5
72
330
5
100
AcDbSymbolTableRecord
100
AcDbLinetypeTableRecord
  2
DOT2
 70
     0
  3
Dot (.5x) ........................................
 72
    65
 73
     2
 40
0.635
 49
0.0
 74
     0
 49
-0.635
 74
     0
  0
ENDTAB
  0
TABLE
  2
LAYER
  5
2
330
0
100
AcDbSymbolTable
 70
    17
  0
LAYER
  5
10
330
2
100
AcDbSymbolTableRecord
100
AcDbLayerTableRecord
  2
0
 70
     0
 62
     7
  6
Continuous
370
    -3
390
F
  0
LAYER
  5
73
330
2
100
AcDbSymbolTableRecord
100
AcDbLayerTableRecord
  2
FORMAT
 70
     0
 62
     7
  6
Continuous
370
    -3
390
F
  0
LAYER
  5
74
330
2
100
AcDbSymbolTableRecord
100
AcDbLayerTableRecord
  2
YARDIMCI_GEOMETRI
 70
     0
 62
    -6
  6
Continuous
290
     0
370
    -3
390
F
  0
LAYER
  5
75
330
2
100
AcDbSymbolTableRecord
100
AcDbLayerTableRecord
  2
SAYFA_CERCEVESI
 70
     0
 62
     7
  6
Continuous
370
    25
390
F
  0
LAYER
  5
76
330
2
100
AcDbSymbolTableRecord
100
AcDbLayerTableRecord
  2
ANTET
 70
     0
 62
     7
  6
Continuous
370
    -3
390
F
  0
LAYER
  5
77
330
2
100
AcDbSymbolTableRecord
100
AcDbLayerTableRecord
  2
OLCU
 70
     0
 62
   150
  6
Continuous
370
    -3
390
F
  0
LAYER
  5
78
330
2
100
AcDbSymbolTableRecord
100
AcDbLayerTableRecord
  2
METIN
 70
     0
 62
    96
  6
Continuous
370
    -3
390
F
  0
LAYER
  5
79
330
2
100
AcDbSymbolTableRecord
100
AcDbLayerTableRecord
  2
BALON
 70
     0
 62
     5
  6
Continuous
370
    -3
390
F
  0
LAYER
  5
7A
330
2
100
AcDbSymbolTableRecord
100
AcDbLayerTableRecord
  2
VURGU
 70
     0
 62
     7
  6
Continuous
370
    -3
390
F
  0
LAYER
  5
7B
330
2
100
AcDbSymbolTableRecord
100
AcDbLayerTableRecord
  2
SILIK
 70
     0
 62
     7
  6
Continuous
370
    -3
390
F
  0
LAYER
  5
7C
330
2
100
AcDbSymbolTableRecord
100
AcDbLayerTableRecord
  2
MODEL
 70
     0
 62
     7
  6
Continuous
370
    -3
390
F
  0
LAYER
  5
7D
330
2
100
AcDbSymbolTableRecord
100
AcDbLayerTableRecord
  2
DETAYLANDıRMA
 70
     0
 62
   190
  6
Continuous
370
    -3
390
F
  0
LAYER
  5
7E
330
2
100
AcDbSymbolTableRecord
100
AcDbLayerTableRecord
  2
TOLERANS
 70
     0
 62
   230
  6
Continuous
370
    -3
390
F
  0
LAYER
  5
7F
330
2
100
AcDbSymbolTableRecord
100
AcDbLayerTableRecord
  2
MERKEZ_CIZGILERI
 70
     0
 62
    30
  6
Continuous
370
    -3
390
F
  0
LAYER
  5
80
330
2
100
AcDbSymbolTableRecord
100
AcDbLayerTableRecord
  2
KESIT-DETAY_CIZGILERI
 70
     0
 62
     7
  6
Continuous
370
    -3
390
F
  0
LAYER
  5
81
330
2
100
AcDbSymbolTableRecord
100
AcDbLayerTableRecord
  2
\U+041E\U+0421\U+0415\U+0412\U+042B\U+0415
 70
     0
 62
     7
  6
Continuous
370
    -3
390
F
  0
LAYER
  5
82
330
2
100
AcDbSymbolTableRecord
100
AcDbLayerTableRecord
  2
\U+0412\U+041E\U+0414\U+042F\U+041D\U+042B\U+0415_\U+0417\U+041D\U+0410\U+041A\U+0418
 70
     0
 62
    11
  6
Continuous
370
    -3
390
F
  0
ENDTAB
  0
TABLE
  2
STYLE
  5
3
330
0
100
AcDbSymbolTable
 70
     1
  0
STYLE
  5
11
330
3
100
AcDbSymbolTableRecord
100
AcDbTextStyleTableRecord
  2
Standard
 70
     0
 40
0.0
 41
1.0
 50
0.0
 71
     0
 42
3.5
  3
txt
  4

  0
ENDTAB
  0
TABLE
  2
VIEW
  5
6
330
0
100
AcDbSymbolTable
 70
     0
  0
ENDTAB
  0
TABLE
  2
UCS
  5
7
330
0
100
AcDbSymbolTable
 70
     0
  0
ENDTAB
  0
TABLE
  2
APPID
  5
9
330
0
100
AcDbSymbolTable
 70
     1
  0
APPID
  5
12
330
9
100
AcDbSymbolTableRecord
100
AcDbRegAppTableRecord
  2
ACAD
 70
     0
  0
ENDTAB
  0
TABLE
  2
DIMSTYLE
  5
A
330
0
100
AcDbSymbolTable
 70
     1
100
AcDbDimStyleTable
  0
DIMSTYLE
105
27
330
A
100
AcDbSymbolTableRecord
100
AcDbDimStyleTableRecord
  2
ISO-25
 70
     0
 41
2.5
 42
0.625
 43
3.75
 44
1.25
 73
     0
 74
     0
 77
     1
 78
     8
140
2.5
141
2.5
143
0.0393700787
147
0.625
171
     3
172
     1
178
     0
271
     2
272
     2
274
     3
278
    44
283
     0
284
     8
340
11
  0
ENDTAB
  0
TABLE
  2
BLOCK_RECORD
  5
1
330
0
100
AcDbSymbolTable
 70
     3
  0
BLOCK_RECORD
  5
1F
330
1
100
AcDbSymbolTableRecord
100
AcDbBlockTableRecord
  2
*Model_Space
340
22
  0
BLOCK_RECORD
  5
1B
330
1
100
AcDbSymbolTableRecord
100
AcDbBlockTableRecord
  2
*Paper_Space
340
1E
  0
BLOCK_RECORD
  5
23
330
1
100
AcDbSymbolTableRecord
100
AcDbBlockTableRecord
  2
*Paper_Space0
340
26
  0
BLOCK_RECORD
  5
8C
330
1
100
AcDbSymbolTableRecord
100
AcDbBlockTableRecord
  2
SW_CENTERMARKSYMBOL_0
340
0
102
{BLKREFS
331
97
102
}
  0
BLOCK_RECORD
  5
106
330
1
100
AcDbSymbolTableRecord
100
AcDbBlockTableRecord
  2
SW_CENTERMARKSYMBOL_1
340
0
102
{BLKREFS
331
111
102
}
  0
ENDTAB
  0
ENDSEC
  0
SECTION
  2
BLOCKS
  0
BLOCK
  5
20
330
1F
100
AcDbEntity
  8
0
100
AcDbBlockBegin
  2
*Model_Space
 70
     0
 10
0.0
 20
0.0
 30
0.0
  3
*Model_Space
  1

  0
ENDBLK
  5
21
330
1F
100
AcDbEntity
  8
0
100
AcDbBlockEnd
  0
BLOCK
  5
1C
330
1B
100
AcDbEntity
 67
     1
  8
0
100
AcDbBlockBegin
  2
*Paper_Space
 70
     0
 10
0.0
 20
0.0
 30
0.0
  3
*Paper_Space
  1

  0
ENDBLK
  5
1D
330
1B
100
AcDbEntity
 67
     1
  8
0
100
AcDbBlockEnd
  0
BLOCK
  5
24
330
23
100
AcDbEntity
  8
0
100
AcDbBlockBegin
  2
*Paper_Space0
 70
     0
 10
0.0
 20
0.0
 30
0.0
  3
*Paper_Space0
  1

  0
ENDBLK
  5
25
330
23
100
AcDbEntity
  8
0
100
AcDbBlockEnd
  0
BLOCK
  5
8D
330
8C
100
AcDbEntity
  8
0
100
AcDbBlockBegin
  2
SW_CENTERMARKSYMBOL_0
 70
     0
 10
0.0
 20
0.0
 30
0.0
  3
SW_CENTERMARKSYMBOL_0
  1

  0
LINE
  5
8F
330
8C
100
AcDbEntity
  8
FORMAT
 62
     0
100
AcDbLine
 10
0.0
 20
0.0
 30
0.0
 11
0.0
 21
2.5
 31
0.0
  0
LINE
  5
90
330
8C
100
AcDbEntity
  8
FORMAT
 62
     0
100
AcDbLine
 10
0.0
 20
0.0
 30
0.0
 11
-2.5
 21
0.0
 31
0.0
  0
LINE
  5
91
330
8C
100
AcDbEntity
  8
FORMAT
 62
     0
100
AcDbLine
 10
0.0
 20
0.0
 30
0.0
 11
0.0
 21
-2.5
 31
0.0
  0
LINE
  5
92
330
8C
100
AcDbEntity
  8
FORMAT
 62
     0
100
AcDbLine
 10
0.0
 20
0.0
 30
0.0
 11
2.5
 21
0.0
 31
0.0
  0
LINE
  5
93
330
8C
100
AcDbEntity
  8
FORMAT
 62
     0
100
AcDbLine
 10
0.0
 20
5.0
 30
0.0
 11
0.0
 21
39.2681297442
 31
0.0
  0
LINE
  5
94
330
8C
100
AcDbEntity
  8
FORMAT
 62
     0
100
AcDbLine
 10
-5.0
 20
0.0
 30
0.0
 11
-21.0
 21
0.0
 31
0.0
  0
LINE
  5
95
330
8C
100
AcDbEntity
  8
FORMAT
 62
     0
100
AcDbLine
 10
0.0
 20
-5.0
 30
0.0
 11
0.0
 21
-36.2035066321
 31
0.0
  0
LINE
  5
96
330
8C
100
AcDbEntity
  8
FORMAT
 62
     0
100
AcDbLine
 10
5.0
 20
0.0
 30
0.0
 11
21.0
 21
0.0
 31
0.0
  0
ENDBLK
  5
8E
330
8C
100
AcDbEntity
  8
0
100
AcDbBlockEnd
  0
BLOCK
  5
107
330
106
100
AcDbEntity
  8
0
100
AcDbBlockBegin
  2
SW_CENTERMARKSYMBOL_1
 70
     0
 10
0.0
 20
0.0
 30
0.0
  3
SW_CENTERMARKSYMBOL_1
  1

  0
LINE
  5
109
330
106
100
AcDbEntity
  8
FORMAT
 62
     0
100
AcDbLine
 10
0.0
 20
0.0
 30
0.0
 11
0.0
 21
2.5
 31
0.0
  0
LINE
  5
10A
330
106
100
AcDbEntity
  8
FORMAT
 62
     0
100
AcDbLine
 10
0.0
 20
0.0
 30
0.0
 11
-2.5
 21
0.0
 31
0.0
  0
LINE
  5
10B
330
106
100
AcDbEntity
  8
FORMAT
 62
     0
100
AcDbLine
 10
0.0
 20
0.0
 30
0.0
 11
0.0
 21
-2.5
 31
0.0
  0
LINE
  5
10C
330
106
100
AcDbEntity
  8
FORMAT
 62
     0
100
AcDbLine
 10
0.0
 20
0.0
 30
0.0
 11
2.5
 21
0.0
 31
0.0
  0
LINE
  5
10D
330
106
100
AcDbEntity
  8
FORMAT
 62
     0
100
AcDbLine
 10
0.0
 20
5.0
 30
0.0
 11
0.0
 21
7.25
 31
0.0
  0
LINE
  5
10E
330
106
100
AcDbEntity
  8
FORMAT
 62
     0
100
AcDbLine
 10
-5.0
 20
0.0
 30
0.0
 11
-7.25
 21
0.0
 31
0.0
  0
LINE
  5
10F
330
106
100
AcDbEntity
  8
FORMAT
 62
     0
100
AcDbLine
 10
0.0
 20
-5.0
 30
0.0
 11
0.0
 21
-7.25
 31
0.0
  0
LINE
  5
110
330
106
100
AcDbEntity
  8
FORMAT
 62
     0
100
AcDbLine
 10
5.0
 20
0.0
 30
0.0
 11
7.25
 21
0.0
 31
0.0
  0
ENDBLK
  5
108
330
106
100
AcDbEntity
  8
0
100
AcDbBlockEnd
  0
ENDSEC
  0
SECTION
  2
ENTITIES
  0
LINE
  5
83
330
1F
100
AcDbEntity
  8
0
  6
Continuous
 62
     7
370
    25
100
AcDbLine
 10
144.6535634807
 20
154.4773178932
 30
0.0
 11
144.399234026
 21
169.0478425974
 31
0.0
  0
LINE
  5
84
330
1F
100
AcDbEntity
  8
0
  6
Continuous
 62
     7
370
    25
100
AcDbLine
 10
130.399234026
 20
169.0478425974
 30
0.0
 11
130.1448451515
 21
154.473913737
 31
0.0
  0
LINE
  5
85
330
1F
100
AcDbEntity
  8
0
  6
Continuous
 62
     7
370
    25
100
AcDbLine
 10
130.1448463301
 20
120.4217039327
 30
0.0
 11
130.399234026
 21
105.8478425974
 31
0.0
  0
LINE
  5
86
330
1F
100
AcDbEntity
  8
0
  6
Continuous
 62
     7
370
    25
100
AcDbLine
 10
144.399234026
 20
105.8478425974
 30
0.0
 11
144.6535864044
 21
120.4196805973
 31
0.0
  0
CIRCLE
  5
87
330
1F
100
AcDbEntity
  8
0
  6
Continuous
 62
     7
370
    25
100
AcDbCircle
 10
137.399234026
 20
137.4478425974
 30
0.0
 40
12.5
  0
CIRCLE
  5
88
330
1F
100
AcDbEntity
  8
0
  6
Continuous
 62
     7
370
    25
100
AcDbCircle
 10
137.399234026
 20
137.4478425974
 30
0.0
 40
17.5
  0
CIRCLE
  5
89
330
1F
100
AcDbEntity
  8
0
  6
Continuous
 62
     7
370
    25
100
AcDbCircle
 10
137.399234026
 20
137.4478425974
 30
0.0
 40
18.5
  0
LINE
  5
8A
330
1F
100
AcDbEntity
  8
0
  6
Continuous
 62
     7
370
    25
100
AcDbLine
 10
130.399234026
 20
169.0478425974
 30
0.0
 11
144.399234026
 21
169.0478425974
 31
0.0
  0
LINE
  5
8B
330
1F
100
AcDbEntity
  8
0
  6
Continuous
 62
     7
370
    25
100
AcDbLine
 10
130.399234026
 20
105.8478425974
 30
0.0
 11
144.399234026
 21
105.8478425974
 31
0.0
  0
INSERT
  5
97
330
1F
100
AcDbEntity
  8
FORMAT
 62
     7
100
AcDbBlockReference
  2
SW_CENTERMARKSYMBOL_0
 10
137.399234026
 20
137.4478425974
 30
0.0
  0
LINE
  5
98
330
1F
100
AcDbEntity
  8
0
  6
Continuous
 62
     7
370
    25
100
AcDbLine
 10
288.5875568406
 20
118.9478425974
 30
0.0
 11
290.1394937692
 21
118.9478425974
 31
0.0
  0
LINE
  5
99
330
1F
100
AcDbEntity
  8
0
  6
Continuous
 62
     7
370
    25
100
AcDbLine
 10
232.9570574846
 20
118.9478425974
 30
0.0
 11
274.1722811533
 21
118.9478425974
 31
0.0
  0
LINE
  5
9A
330
1F
100
AcDbEntity
  8
0
  6
Continuous
 62
     7
370
    25
100
AcDbLine
 10
274.1654518185
 20
155.9478425974
 30
0.0
 11
232.9570574846
 21
155.9478425974
 31
0.0
  0
LINE
  5
9B
330
1F
100
AcDbEntity
  8
0
  6
Continuous
 62
     7
370
    25
100
AcDbLine
 10
290.1394937692
 20
155.9478425974
 30
0.0
 11
288.5915191193
 21
155.9478425974
 31
0.0
  0
ARC
  5
9C
330
1F
100
AcDbEntity
  8
0
  6
Continuous
 62
     7
370
    25
100
AcDbCircle
 10
290.1394937692
 20
119.9478425974
 30
0.0
 40
1.0
100
AcDbArc
 50
270.0
 51
0.0
  0
ARC
  5
9D
330
1F
100
AcDbEntity
  8
0
  6
Continuous
 62
     7
370
    25
100
AcDbCircle
 10
290.1394937692
 20
154.9478425974
 30
0.0
 40
1.0
100
AcDbArc
 50
0.0
 51
90.0
  0
ARC
  5
9E
330
1F
100
AcDbEntity
  8
0
  6
Continuous
 62
     7
370
    25
100
AcDbCircle
 10
232.9570574846
 20
121.9478425974
 30
0.0
 40
3.000000000000005
100
AcDbArc
 50
193.3761693665
 51
270.0
  0
ARC
  5
9F
330
1F
100
AcDbEntity
  8
0
  6
Continuous
 62
     7
370
    25
100
AcDbCircle
 10
232.9570574846
 20
152.9478425974
 30
0.0
 40
3.000000000000005
100
AcDbArc
 50
90.0
 51
166.6238306335
  0
ARC
  5
A0
330
1F
100
AcDbEntity
  8
0
  6
Continuous
 62
     7
370
    25
100
AcDbCircle
 10
298.1394937692
 20
137.4478425974
 30
0.0
 40
70.00000000000007
100
AcDbArc
 50
166.6238306335
 51
193.3761693665
  0
LINE
  5
A1
330
1F
100
AcDbEntity
  8
0
  6
Continuous
 62
     7
370
    25
100
AcDbLine
 10
288.6045836394
 20
155.9478425974
 30
0.0
 11
288.3759222888
 21
169.0478425974
 31
0.0
  0
LINE
  5
A2
330
1F
100
AcDbEntity
  8
0
  6
Continuous
 62
     7
370
    25
100
AcDbLine
 10
274.3759222888
 20
169.0478425974
 30
0.0
 11
274.1471420164
 21
155.9410295713
 31
0.0
  0
LINE
  5
A3
330
1F
100
AcDbEntity
  8
0
  6
Continuous
 62
     7
370
    25
100
AcDbLine
 10
274.147097111
 20
118.9572282558
 30
0.0
 11
274.3759222888
 21
105.8478425974
 31
0.0
  0
LINE
  5
A4
330
1F
100
AcDbEntity
  8
0
  6
Continuous
 62
     7
370
    25
100
AcDbLine
 10
288.3759222888
 20
105.8478425974
 30
0.0
 11
288.6046949267
 21
118.9542182458
 31
0.0
  0
SPLINE
  5
A5
330
1F
100
AcDbEntity
  8
0
  6
Continuous
 62
     7
370
    25
100
AcDbSpline
210
0.0
220
0.0
230
1.0
 70
     8
 71
     3
 72
    27
 73
    23
 74
     0
 42
0.00000001
 43
0.00000001
 40
0.0
 40
0.0
 40
0.0
 40
0.0
 40
0.0374085521102441
 40
0.0888683066174056
 40
0.1382695754636135
 40
0.1889697315183385
 40
0.2409794294136762
 40
0.294362078533526
 40
0.3487460671653155
 40
0.4048125024670005
 40
0.4571924726947749
 40
0.5113414059752375
 40
0.5599512263743732
 40
0.6099626389223515
 40
0.658951598015271
 40
0.7091734782618536
 40
0.761836514568125
 40
0.8159216762984208
 40
0.8702867778197884
 40
0.9263812693667877
 40
0.9781285036761496
 40
1.0
 40
1.0
 40
1.0
 40
1.0
 10
288.5875568406361
 20
118.9545258467652
 30
0.0
 10
288.584502810036
 20
118.9557423567007
 30
0.0
 10
288.5772476100224
 20
118.9586323155965
 30
0.0
 10
288.3503194806846
 20
119.0471864894108
 30
0.0
 10
287.9502734264492
 20
119.1970575960882
 30
0.0
 10
287.3820441881805
 20
119.3970210787509
 30
0.0
 10
286.6479099252601
 20
119.6316357270473
 30
0.0
 10
285.7538649377162
 20
119.8798421384136
 30
0.0
 10
284.7089163611187
 20
120.1154240449131
 30
0.0
 10
283.5637817374908
 20
120.3020481288382
 30
0.0
 10
282.3483786514728
 20
120.4161699518865
 30
0.0
 10
281.1556932929431
 20
120.442040729629
 30
0.0
 10
279.990222184731
 20
120.3849548940726
 30
0.0
 10
278.9032605339169
 20
120.2603423942155
 30
0.0
 10
277.872853382956
 20
120.079147593468
 30
0.0
 10
276.9161396930845
 20
119.8582600414596
 30
0.0
 10
276.045655701321
 20
119.6142223720133
 30
0.0
 10
275.2991833263213
 20
119.3734771621309
 30
0.0
 10
274.7051019730703
 20
119.1619614305849
 30
0.0
 10
274.3246624136846
 20
119.0175331462123
 30
0.0
 10
274.1453700863806
 20
118.9471065624989
 30
0.0
 10
274.1661173256266
 20
118.9552502956679
 30
0.0
 10
274.1722811532694
 20
118.9576697292623
 30
0.0
  0
SPLINE
  5
A6
330
1F
100
AcDbEntity
  8
0
  6
Continuous
 62
     7
370
    25
100
AcDbSpline
210
0.0
220
0.0
230
1.0
 70
     8
 71
     3
 72
    27
 73
    23
 74
     0
 42
0.00000001
 43
0.00000001
 40
0.0
 40
0.0
 40
0.0
 40
0.0
 40
0.0135529805935714
 40
0.0656957414334668
 40
0.1148838723830293
 40
0.1653939708469777
 40
0.2166460446043007
 40
0.2692284993671136
 40
0.3233454956816392
 40
0.3790654662811973
 40
0.4323234111322026
 40
0.4873858412704412
 40
0.5366373444142307
 40
0.587378637561649
 40
0.6358385478407963
 40
0.6855361254134941
 40
0.7373098587693123
 40
0.7904360487960171
 40
0.8448317799775236
 40
0.9009032357910602
 40
0.953467793669381
 40
0.9999999999999999
 40
0.9999999999999999
 40
0.9999999999999999
 40
0.9999999999999999
 10
274.1654518185403
 20
155.9407019091677
 30
0.0
 10
274.1600742098231
 20
155.942812634817
 30
0.0
 10
274.134007176865
 20
155.9530440142196
 30
0.0
 10
274.277019731554
 20
155.8967314897087
 30
0.0
 10
274.5920593483593
 20
155.7762435004575
 30
0.0
 10
275.084642607318
 20
155.5970011188085
 30
0.0
 10
275.741626242322
 20
155.3764857784867
 30
0.0
 10
276.5618488338345
 20
155.1316633155017
 30
0.0
 10
277.5406988700575
 20
154.8858812659208
 30
0.0
 10
278.6417957148005
 20
154.6733185663766
 30
0.0
 10
279.8381964035108
 20
154.5215046677862
 30
0.0
 10
281.0397471519416
 20
154.4551237446923
 30
0.0
 10
282.2309690352206
 20
154.4748396203793
 30
0.0
 10
283.3466938289578
 20
154.5691318846223
 30
0.0
 10
284.4092468588191
 20
154.7266217773904
 30
0.0
 10
285.3991100017817
 20
154.9303133460002
 30
0.0
 10
286.3134207995602
 20
155.1664037638265
 30
0.0
 10
287.1219767330364
 20
155.4120711756673
 30
0.0
 10
287.7939261734908
 20
155.6415609220441
 30
0.0
 10
288.2737449920928
 20
155.8190788432487
 30
0.0
 10
288.5605793300701
 20
155.9304427027038
 30
0.0
 10
288.5816330599018
 20
155.9387991834901
 30
0.0
 10
288.5915191193345
 20
155.942723080413
 30
0.0
  0
LINE
  5
A7
330
1F
100
AcDbEntity
  8
0
  6
Continuous
 62
     7
370
    25
100
AcDbLine
 10
291.1394937692
 20
137.4478425974
 30
0.0
 11
291.1394937692
 21
154.9478425974
 31
0.0
  0
LINE
  5
A8
330
1F
100
AcDbEntity
  8
0
  6
Continuous
 62
     7
370
    25
100
AcDbLine
 10
291.1394937692
 20
119.9478425974
 30
0.0
 11
291.1394937692
 21
137.4478425974
 31
0.0
  0
LINE
  5
A9
330
1F
100
AcDbEntity
  8
0
  6
Continuous
 62
     7
370
    25
100
AcDbLine
 10
281.3759222888
 20
169.0478425974
 30
0.0
 11
288.3759222888
 21
169.0478425974
 31
0.0
  0
LINE
  5
AA
330
1F
100
AcDbEntity
  8
0
  6
Continuous
 62
     7
370
    25
100
AcDbLine
 10
274.3759222888
 20
169.0478425974
 30
0.0
 11
281.3759222888
 21
169.0478425974
 31
0.0
  0
LINE
  5
AB
330
1F
100
AcDbEntity
  8
0
  6
Continuous
 62
     7
370
    25
100
AcDbLine
 10
281.3759222888
 20
105.8478425974
 30
0.0
 11
288.3759222888
 21
105.8478425974
 31
0.0
  0
LINE
  5
AC
330
1F
100
AcDbEntity
  8
0
  6
Continuous
 62
     7
370
    25
100
AcDbLine
 10
274.3759222888
 20
105.8478425974
 30
0.0
 11
281.3759222888
 21
105.8478425974
 31
0.0
  0
LINE
  5
AD
330
1F
100
AcDbEntity
  8
0
  6
Continuous
 62
     1
370
    25
100
AcDbLine
 10
290.1394937692
 20
137.4478425974
 30
0.0
 11
290.1394937692
 21
155.9478425974
 31
0.0
  0
LINE
  5
AE
330
1F
100
AcDbEntity
  8
0
  6
Continuous
 62
     1
370
    25
100
AcDbLine
 10
290.1394937692
 20
118.9478425974
 30
0.0
 11
290.1394937692
 21
137.4478425974
 31
0.0
  0
LINE
  5
AF
330
1F
100
AcDbEntity
  8
0
  6
Continuous
 62
     1
370
    25
100
AcDbLine
 10
232.9570574846
 20
137.4478425974
 30
0.0
 11
232.9570574846
 21
155.9478425974
 31
0.0
  0
LINE
  5
B0
330
1F
100
AcDbEntity
  8
0
  6
Continuous
 62
     1
370
    25
100
AcDbLine
 10
232.9570574846
 20
118.9478425974
 30
0.0
 11
232.9570574846
 21
137.4478425974
 31
0.0
  0
LINE
  5
B1
330
1F
100
AcDbEntity
  8
0
  6
Continuous
 62
     1
370
    25
100
AcDbLine
 10
230.0384409345
 20
137.4478425974
 30
0.0
 11
230.0384409345
 21
153.6418724481
 31
0.0
  0
LINE
  5
B2
330
1F
100
AcDbEntity
  8
0
  6
Continuous
 62
     1
370
    25
100
AcDbLine
 10
230.0384409345
 20
121.2538127467
 30
0.0
 11
230.0384409345
 21
137.4478425974
 31
0.0
  0
SPLINE
  5
B3
330
1F
100
AcDbEntity
  8
0
  6
Continuous
 62
     7
370
    25
100
AcDbSpline
210
0.0
220
0.0
230
1.0
 70
     8
 71
     3
 72
    22
 73
    18
 74
     0
 42
0.00000001
 43
0.00000001
 40
0.0
 40
0.0
 40
0.0
 40
0.0
 40
0.0355788534134064
 40
0.1045183577878326
 40
0.1734848172306022
 40
0.2426415244219061
 40
0.3121300162961379
 40
0.3820543243381073
 40
0.4524727264424647
 40
0.5233963788057113
 40
0.5947948200139052
 40
0.6666067828152351
 40
0.7387535038802614
 40
0.811151442025323
 40
0.8837221142023971
 40
0.9563981205550453
 40
1.0
 40
1.0
 40
1.0
 40
1.0
 10
215.7042384339667
 20
251.9128462875723
 30
0.0
 10
215.6083153568231
 20
251.8595789732828
 30
0.0
 10
215.3265265543423
 20
251.7030980392679
 30
0.0
 10
214.8919900458833
 20
251.3876867546405
 30
0.0
 10
214.4012639970875
 20
250.9722818867398
 30
0.0
 10
213.9465523819647
 20
250.5064305019188
 30
0.0
 10
213.5270460482313
 20
249.9945718190936
 30
0.0
 10
213.1444583104818
 20
249.4369206311517
 30
0.0
 10
212.7999229780541
 20
248.8350059381935
 30
0.0
 10
212.4947865694956
 20
248.1903208557301
 30
0.0
 10
212.23031264259
 20
247.5047789520034
 30
0.0
 10
212.0076332431843
 20
246.7806290228574
 30
0.0
 10
211.8277528627532
 20
246.0203970003454
 30
0.0
 10
211.6911591627707
 20
245.226973115686
 30
0.0
 10
211.599116327281
 20
244.4028956990402
 30
0.0
 10
211.5555034591738
 20
243.6662658292212
 30
0.0
 10
211.5512980360386
 20
243.2007702894399
 30
0.0
 10
211.5497210865499
 20
243.0262187806256
 30
0.0
  0
SPLINE
  5
B4
330
1F
100
AcDbEntity
  8
0
  6
Continuous
 62
     7
370
    25
100
AcDbSpline
210
0.0
220
0.0
230
1.0
 70
     8
 71
     3
 72
    49
 73
    45
 74
     0
 42
0.00000001
 43
0.00000001
 40
0.0
 40
0.0
 40
0.0
 40
0.0
 40
0.0130264375079956
 40
0.037623851812437
 40
0.0622089106751168
 40
0.0867800901773474
 40
0.1113347528892011
 40
0.1358719358398931
 40
0.1603918700450015
 40
0.1848956158565593
 40
0.2093847955834471
 40
0.2338614031367136
 40
0.2583276722185915
 40
0.2827859876777752
 40
0.3072388278531564
 40
0.3316887284876856
 40
0.3561382609397203
 40
0.3805895926298519
 40
0.405044893042195
 40
0.4295067760968359
 40
0.4539778488604815
 40
0.4784606898040338
 40
0.5029578127852036
 40
0.5274716091613755
 40
0.5520042582768614
 40
0.5765575935983214
 40
0.6011329082282764
 40
0.6257306798612028
 40
0.6503501925836227
 40
0.6749890335969605
 40
0.6996424512570036
 40
0.7243015163051315
 40
0.7489505813613786
 40
0.7735714445508832
 40
0.7981407172614269
 40
0.8226303898816476
 40
0.8470096668027638
 40
0.8712483146227098
 40
0.8953213205934558
 40
0.9192140477145543
 40
0.9429266069960865
 40
0.9664761766953466
 40
0.9898965458866777
 40
1.0
 40
1.0
 40
1.0
 40
1.0
 10
211.5497210865499
 20
243.0262187806256
 30
0.0
 10
211.5509621831293
 20
242.8706789950654
 30
0.0
 10
211.5545468035413
 20
242.4214382998053
 30
0.0
 10
211.5941383860725
 20
241.6624503416508
 30
0.0
 10
211.6823119833706
 20
240.7457252818741
 30
0.0
 10
211.8140053721872
 20
239.8139339175858
 30
0.0
 10
211.9878212192977
 20
238.870392949054
 30
0.0
 10
212.2032131136399
 20
237.9179558930774
 30
0.0
 10
212.4592742384892
 20
236.959613534876
 30
0.0
 10
212.7550668361225
 20
235.9983236485254
 30
0.0
 10
213.0895365352818
 20
235.0370552213349
 30
0.0
 10
213.4615372131472
 20
234.0787724908573
 30
0.0
 10
213.8698263511528
 20
233.1264328297461
 30
0.0
 10
214.31306878426
 20
232.1829791995214
 30
0.0
 10
214.7898389311933
 20
231.2513328359088
 30
0.0
 10
215.2986242680695
 20
230.3343850915925
 30
0.0
 10
215.8378262005392
 20
229.4349943261595
 30
0.0
 10
216.4057637533334
 20
228.5559770244908
 30
0.0
 10
217.0006816889934
 20
227.7000934984887
 30
0.0
 10
217.6207604354531
 20
226.8700350958277
 30
0.0
 10
218.2641233630642
 20
226.0684175328228
 30
0.0
 10
218.9288398905339
 20
225.2977796984333
 30
0.0
 10
219.6129320364625
 20
224.5605781246408
 30
0.0
 10
220.314380753876
 20
223.8591825378492
 30
0.0
 10
221.0311316761459
 20
223.1958726409063
 30
0.0
 10
221.7610997780524
 20
222.5728362237266
 30
0.0
 10
222.5021722984983
 20
221.9921686023601
 30
0.0
 10
223.2522090933207
 20
221.4558732056412
 30
0.0
 10
224.0090394193097
 20
220.9658628203594
 30
0.0
 10
224.7704540621805
 20
220.5239605217782
 30
0.0
 10
225.5341808305735
 20
220.1319042601408
 30
0.0
 10
226.2978365273955
 20
219.7913498452588
 30
0.0
 10
227.0589257905241
 20
219.5038332637164
 30
0.0
 10
227.8148276942326
 20
219.2707347061254
 30
0.0
 10
228.5628073813292
 20
219.0932279707825
 30
0.0
 10
229.2999939276335
 20
218.9722332932182
 30
0.0
 10
230.0234179601232
 20
218.9083398736872
 30
0.0
 10
230.7300589248761
 20
218.9017783403372
 30
0.0
 10
231.417015169326
 20
218.9522596470871
 30
0.0
 10
232.0813462565229
 20
219.0594495741913
 30
0.0
 10
232.7211628734048
 20
219.2213131922946
 30
0.0
 10
233.3320255810727
 20
219.4405605063434
 30
0.0
 10
233.809714222997
 20
219.6522434988588
 30
0.0
 10
234.0720961143097
 20
219.8091503885817
 30
0.0
 10
234.1511731150131
 20
219.8564391940969
 30
0.0
  0
LINE
  5
B5
330
1F
100
AcDbEntity
  8
0
  6
Continuous
 62
     7
370
    25
100
AcDbLine
 10
238.3612859808
 20
254.0419201022
 30
0.0
 11
238.1203375428
 21
265.3125313727
 31
0.0
  0
LINE
  5
B6
330
1F
100
AcDbEntity
  8
0
  6
Continuous
 62
     7
370
    25
100
AcDbLine
 10
224.1214036143
 20
265.3125313727
 30
0.0
 11
223.8798208383
 21
254.0122482889
 31
0.0
  0
LINE
  5
B7
330
1F
100
AcDbEntity
  8
0
  6
Continuous
 62
     7
370
    25
100
AcDbLine
 10
256.1089299421
 20
275.2466541745
 30
0.0
 11
238.1298505098
 21
264.8675525437
 31
0.0
  0
LINE
  5
B8
330
1F
100
AcDbEntity
  8
0
  6
Continuous
 62
     7
370
    25
100
AcDbLine
 10
223.9367257911
 20
256.6740360475
 30
0.0
 11
215.6748414804
 21
251.9045517562
 31
0.0
  0
LINE
  5
B9
330
1F
100
AcDbEntity
  8
0
  6
Continuous
 62
     7
370
    25
100
AcDbLine
 10
234.1733380342
 20
219.8607438481
 30
0.0
 11
274.6074264958
 21
243.2028462664
 31
0.0
  0
LINE
  5
BA
330
1F
100
AcDbEntity
  8
0
  6
Continuous
 62
     7
370
    25
100
AcDbLine
 10
223.9632760903
 20
221.0039928237
 30
0.0
 11
224.1214036143
 21
213.6074150768
 31
0.0
  0
LINE
  5
BB
330
1F
100
AcDbEntity
  8
0
  6
Continuous
 62
     7
370
    25
100
AcDbLine
 10
238.1203375428
 20
213.6074150768
 30
0.0
 11
238.3050153659
 21
222.245910402
 31
0.0
  0
SPLINE
  5
BC
330
1F
100
AcDbEntity
  8
0
  6
Continuous
 62
     7
370
    25
100
AcDbSpline
210
0.0
220
0.0
230
1.0
 70
     8
 71
     3
 72
    63
 73
    59
 74
     0
 42
0.00000001
 43
0.00000001
 40
0.0
 40
0.0
 40
0.0
 40
0.0
 40
0.008697018969335
 40
0.0253399186592251
 40
0.0419822273677305
 40
0.058684677526007
 40
0.0755048522488474
 40
0.0924947605539428
 40
0.1096980864652771
 40
0.1271471750662402
 40
0.1448601393001381
 40
0.162838779551856
 40
0.1810681633628297
 40
0.1995185071441938
 40
0.2181493573010415
 40
0.236915223692651
 40
0.2557712655846533
 40
0.2746777278319668
 40
0.2936000945666422
 40
0.3125108567441249
 40
0.3313962536694378
 40
0.3502484906975525
 40
0.3690643303180181
 40
0.3878438451544688
 40
0.4065894223943152
 40
0.4253050176823044
 40
0.4439956214423414
 40
0.4626668913882452
 40
0.4813249079085288
 40
0.4999760160964934
 40
0.5186267254974876
 40
0.5372825400177599
 40
0.5559490226923782
 40
0.5746328490621823
 40
0.5933406441809623
 40
0.6120788851483214
 40
0.6308537465182753
 40
0.6496708579085948
 40
0.6685349347819005
 40
0.6874492338586687
 40
0.706414777477094
 40
0.7254292936047052
 40
0.7444858437122015
 40
0.7635711810036039
 40
0.7826571762946466
 40
0.8017075991505682
 40
0.820679039520151
 40
0.8395208647225245
 40
0.8581799812884598
 40
0.8766075984982986
 40
0.8947664079425874
 40
0.9126361402741676
 40
0.9302160630789963
 40
0.9475242709775495
 40
0.9645947170370928
 40
0.9814732937905958
 40
0.9982139861520818
 40
1.0
 40
1.0
 40
1.0
 40
1.0
 10
274.600506422979
 20
243.2074602013773
 30
0.0
 10
274.7063226885785
 20
243.2669615557532
 30
0.0
 10
275.0146324177588
 20
243.4403266461726
 30
0.0
 10
275.4916760773496
 20
243.7830254862719
 30
0.0
 10
276.0301716106263
 20
244.228818943496
 30
0.0
 10
276.5309530663468
 20
244.7232658460274
 30
0.0
 10
276.9949463485038
 20
245.2618469135875
 30
0.0
 10
277.4206064592539
 20
245.8444550631869
 30
0.0
 10
277.8069537268384
 20
246.4699505350358
 30
0.0
 10
278.1527022002144
 20
247.1374696667617
 30
0.0
 10
278.4564896928971
 20
247.8458575721232
 30
0.0
 10
278.7168681931272
 20
248.5935960149521
 30
0.0
 10
278.9324220055594
 20
249.3786325579485
 30
0.0
 10
279.1018952085992
 20
250.1983276084131
 30
0.0
 10
279.2243234879026
 20
251.0494949987483
 30
0.0
 10
279.2991279207162
 20
251.9285386772723
 30
0.0
 10
279.3261506757021
 20
252.8316401330333
 30
0.0
 10
279.3056324100502
 20
253.7549049420709
 30
0.0
 10
279.2381600931363
 20
254.6944779356787
 30
0.0
 10
279.1245903306025
 20
255.6467194958767
 30
0.0
 10
278.9659539512823
 20
256.6082664500062
 30
0.0
 10
278.7633733442956
 20
257.5760353975875
 30
0.0
 10
278.5180359398066
 20
258.5470788323242
 30
0.0
 10
278.2311752447993
 20
259.5185477210503
 30
0.0
 10
277.9040623216368
 20
260.4876603595503
 30
0.0
 10
277.5380034154434
 20
261.4516796501254
 30
0.0
 10
277.1343405430624
 20
262.4078984707083
 30
0.0
 10
276.6944529245229
 20
263.3536317733377
 30
0.0
 10
276.219757980958
 20
264.2862137713212
 30
0.0
 10
275.7117112241808
 20
265.2029986432913
 30
0.0
 10
275.1718154125816
 20
266.1013456670183
 30
0.0
 10
274.601620855123
 20
266.9786255212977
 30
0.0
 10
274.0027119701886
 20
267.8322445473136
 30
0.0
 10
273.3766880492927
 20
268.6596649030996
 30
0.0
 10
272.7251544074751
 20
269.4584038239835
 30
0.0
 10
272.0497283159569
 20
270.2260157510437
 30
0.0
 10
271.3520351180398
 20
270.9600888029104
 30
0.0
 10
270.6337072109024
 20
271.658237784219
 30
0.0
 10
269.8963879534521
 20
272.3180933592637
 30
0.0
 10
269.1417432196443
 20
272.9372875049976
 30
0.0
 10
268.371483972018
 20
273.5134362649927
 30
0.0
 10
267.5874035644985
 20
274.0441224055446
 30
0.0
 10
266.7914329379645
 20
274.5268830158999
 30
0.0
 10
265.9858107115328
 20
274.9591587196741
 30
0.0
 10
265.1731565326116
 20
275.3383633512764
 30
0.0
 10
264.3565206877454
 20
275.6619957729949
 30
0.0
 10
263.539327066535
 20
275.9278004431592
 30
0.0
 10
262.7253616711537
 20
276.1339056227937
 30
0.0
 10
261.9186869332541
 20
276.2789787110493
 30
0.0
 10
261.1234517171766
 20
276.362352570587
 30
0.0
 10
260.3436566780916
 20
276.3840923413206
 30
0.0
 10
259.5829966446676
 20
276.3448846560206
 30
0.0
 10
258.8446064839827
 20
276.2461346041326
 30
0.0
 10
258.1315331163927
 20
276.0889726486531
 30
0.0
 10
257.4449617255741
 20
275.8771008728229
 30
0.0
 10
256.7909503174415
 20
275.6056353198399
 30
0.0
 10
256.343887687587
 20
275.3914820652476
 30
0.0
 10
256.1250553930373
 20
275.2537668235333
 30
0.0
 10
256.1039594948231
 20
275.2404907815865
 30
0.0
  0
LWPOLYLINE
  5
BD
330
1F
100
AcDbEntity
  8
0
  6
Continuous
 62
     7
370
    25
100
AcDbPolyline
 90
      103
 70
   128
 43
0.0
 10
211.8426143054
 20
242.6180147247
 10
211.8660844148
 20
243.4841380837
 10
211.936405713
 20
244.3198779286
 10
212.0533114472
 20
245.1220640118
 10
212.2163581539
 20
245.8876533668
 10
212.424927341
 20
246.613741851
 10
212.6782278342
 20
247.2975751619
 10
212.975298778
 20
247.9365592856
 10
213.3150132806
 20
248.5282703365
 10
213.6960826884
 20
249.0704637518
 10
214.1170614747
 20
249.5610828063
 10
214.5763527227
 20
249.9982664138
 10
215.0722141835
 20
250.3803561871
 10
215.6027648845
 20
250.7059027289
 10
216.1659922655
 20
250.9736711296
 10
216.7597598118
 20
251.1826456519
 10
217.3818151599
 20
251.3320335839
 10
218.0297986407
 20
251.4212682461
 10
218.701252231
 20
251.4500111407
 10
219.3936288773
 20
251.4181532362
 10
220.1043021579
 20
251.3258153804
 10
220.8305762454
 20
251.1733478425
 10
221.5696961337
 20
250.9613289841
 10
222.3188580876
 20
250.6905630653
 10
223.0752202795
 20
250.362077194
 10
223.8359135683
 20
249.9771174297
 10
224.5980523839
 20
249.5371440565
 10
225.3587456728
 20
249.0438260442
 10
226.1151078646
 20
248.499034717
 10
226.8642698186
 20
247.904836655
 10
227.6033897068
 20
247.263485855
 10
228.3296637944
 20
246.5774151801
 10
229.0403370749
 20
245.8492271316
 10
229.7327137212
 20
245.0816839761
 10
230.4041673115
 20
244.2776972676
 10
231.0521507924
 20
243.4403168032
 10
231.6742061405
 20
242.5727190538
 10
232.2679736868
 20
241.6781951148
 10
232.8312010677
 20
240.7601382219
 10
233.3617517688
 20
239.8220308794
 10
233.8576132295
 20
238.8674316497
 10
234.3169044776
 20
237.8999616547
 10
234.7378832638
 20
236.9232908395
 10
235.1189526717
 20
235.941124051
 10
235.4586671742
 20
234.9571869842
 10
235.755738118
 20
233.9752120495
 10
236.0090386113
 20
232.9989242142
 10
236.2176077984
 20
232.0320268723
 10
236.3806545051
 20
231.0781877968
 10
236.4975602392
 20
230.141025226
 10
236.5678815374
 20
229.2240941384
 10
236.5913516469
 20
228.3308727678
 10
236.5678815374
 20
227.4647494088
 10
236.4975602392
 20
226.6290095639
 10
236.3806545051
 20
225.8268234807
 10
236.2176077984
 20
225.0612341257
 10
236.0090386113
 20
224.3351456416
 10
235.755738118
 20
223.6513123307
 10
235.4586671742
 20
223.0123282069
 10
235.1189526717
 20
222.4206171561
 10
234.7378832638
 20
221.8784237407
 10
234.3169044776
 20
221.3878046862
 10
233.8576132295
 20
220.9506210787
 10
233.3617517688
 20
220.5685313054
 10
232.8312010677
 20
220.2429847636
 10
232.2679736868
 20
219.975216363
 10
231.6742061405
 20
219.7662418406
 10
231.0521507924
 20
219.6168539086
 10
230.4041673115
 20
219.5276192464
 10
229.7327137212
 20
219.4988763518
 10
229.0403370749
 20
219.5307342564
 10
228.3296637944
 20
219.6230721122
 10
227.6033897068
 20
219.7755396501
 10
226.8642698186
 20
219.9875585085
 10
226.1151078646
 20
220.2583244273
 10
225.3587456728
 20
220.5868102985
 10
224.5980523839
 20
220.9717700629
 10
223.8359135683
 20
221.411743436
 10
223.0752202795
 20
221.9050614483
 10
222.3188580876
 20
222.4498527755
 10
221.5696961337
 20
223.0440508375
 10
220.8305762454
 20
223.6854016376
 10
220.1043021579
 20
224.3714723124
 10
219.3936288773
 20
225.0996603609
 10
218.701252231
 20
225.8672035164
 10
218.0297986407
 20
226.6711902249
 10
217.3818151599
 20
227.5085706893
 10
216.7597598118
 20
228.3761684387
 10
216.1659922655
 20
229.2706923777
 10
215.6027648845
 20
230.1887492706
 10
215.0722141835
 20
231.1268566132
 10
214.5763527227
 20
232.0814558429
 10
214.1170614747
 20
233.0489258378
 10
213.6960826884
 20
234.0255966531
 10
213.3150132806
 20
235.0077634416
 10
212.975298778
 20
235.9917005083
 10
212.6782278342
 20
236.973675443
 10
212.424927341
 20
237.9499632784
 10
212.2163581539
 20
238.9168606202
 10
212.0533114472
 20
239.8706996957
 10
211.936405713
 20
240.8078622665
 10
211.8660844148
 20
241.7247933541
 10
211.8426143054
 20
242.6180147247
  0
LINE
  5
BE
330
1F
100
AcDbEntity
  8
0
  6
Continuous
 62
     7
370
    25
100
AcDbLine
 10
215.6748414804
 20
251.9045517562
 30
0.0
 11
215.6980409957
 21
251.9178775448
 31
0.0
  0
LINE
  5
BF
330
1F
100
AcDbEntity
  8
0
  6
Continuous
 62
     7
370
    25
100
AcDbLine
 10
234.1733380342
 20
219.8607438481
 30
0.0
 11
234.1567143337
 21
219.8511816189
 31
0.0
  0
LINE
  5
C0
330
1F
100
AcDbEntity
  8
0
  6
Continuous
 62
     7
370
    25
100
AcDbLine
 10
238.3621109407
 20
253.9309576575
 30
0.0
 11
238.3505247337
 21
254.0413049286
 31
0.0
  0
LWPOLYLINE
  5
C1
330
1F
100
AcDbEntity
  8
0
  6
Continuous
 62
     7
370
    25
100
AcDbPolyline
 90
       22
 70
   128
 43
0.0
 10
223.8938851108
 20
254.0123880909
 10
223.9388088846
 20
253.6049164493
 10
224.1981422773
 20
253.0948770092
 10
224.6770192878
 20
252.5611376434
 10
225.311239732
 20
252.0572406598
 10
226.1366161055
 20
251.542863636
 10
227.0185834952
 20
251.0916327839
 10
228.0271344824
 20
250.6613248206
 10
229.0815139904
 20
250.2915545741
 10
230.2084490904
 20
249.9809574663
 10
231.3917720497
 20
249.7526643436
 10
232.6004476213
 20
249.6367061934
 10
233.7801777283
 20
249.6625989637
 10
234.9249438112
 20
249.8588767471
 10
235.8775619385
 20
250.2004277364
 10
236.7298705272
 20
250.7126433747
 10
237.3625464676
 20
251.3018347199
 10
237.8581325978
 20
252.0072690887
 10
238.1875034916
 20
252.7844448458
 10
238.3483765989
 20
253.6238119281
 10
238.3621109407
 20
253.9309576575
 10
238.3621109407
 20
253.9309576575
  0
LWPOLYLINE
  5
C2
330
1F
100
AcDbEntity
  8
0
  6
Continuous
 62
     7
370
    25
100
AcDbPolyline
 90
       65
 70
   128
 43
0.0
 10
226.1711231102
 20
268.1200912717
 10
225.709797405
 20
267.8262550134
 10
225.3005832924
 20
267.5077299614
 10
224.9474217281
 20
267.1675836861
 10
224.653713851
 20
266.8090919822
 10
224.4222882284
 20
266.4357073206
 10
224.2553736157
 20
266.0510255999
 10
224.1545774918
 20
265.6587515151
 10
224.1208705785
 20
265.2626628803
 10
224.1545774918
 20
264.8665742455
 10
224.2553736157
 20
264.4743001608
 10
224.4222882284
 20
264.08961844
 10
224.653713851
 20
263.7162337785
 10
224.9474217281
 20
263.3577420745
 10
225.3005832924
 20
263.0175957993
 10
225.709797405
 20
262.6990707473
 10
226.1711231102
 20
262.405234489
 10
226.6801175894
 20
262.1389168281
 10
227.2318789474
 20
261.9026825493
 10
227.8210934207
 20
261.6988067178
 10
228.442086552
 20
261.5292527694
 10
229.0888778377
 20
261.3956536012
 10
229.7552383244
 20
261.2992958463
 10
230.4347505962
 20
261.2411074826
 10
231.1208705785
 20
261.2216488957
 10
231.8069905608
 20
261.2411074826
 10
232.4865028326
 20
261.2992958463
 10
233.1528633193
 20
261.3956536012
 10
233.7996546051
 20
261.5292527694
 10
234.4206477363
 20
261.6988067178
 10
235.0098622097
 20
261.9026825493
 10
235.5616235677
 20
262.1389168281
 10
236.0706180468
 20
262.405234489
 10
236.5319437521
 20
262.6990707473
 10
236.9411578646
 20
263.0175957993
 10
237.294319429
 20
263.3577420745
 10
237.5880273061
 20
263.7162337785
 10
237.8194529287
 20
264.08961844
 10
237.9863675414
 20
264.4743001608
 10
238.0871636652
 20
264.8665742455
 10
238.1208705785
 20
265.2626628803
 10
238.0871636652
 20
265.6587515151
 10
237.9863675414
 20
266.0510255999
 10
237.8194529287
 20
266.4357073206
 10
237.5880273061
 20
266.8090919822
 10
237.294319429
 20
267.1675836861
 10
236.9411578646
 20
267.5077299614
 10
236.5319437521
 20
267.8262550134
 10
236.0706180468
 20
268.1200912717
 10
235.5616235677
 20
268.3864089326
 10
235.0098622097
 20
268.6226432114
 10
234.4206477363
 20
268.8265190429
 10
233.7996546051
 20
268.9960729913
 10
233.1528633193
 20
269.1296721595
 10
232.4865028326
 20
269.2260299143
 10
231.8069905608
 20
269.2842182781
 10
231.1208705785
 20
269.3036768649
 10
230.4347505962
 20
269.2842182781
 10
229.7552383244
 20
269.2260299143
 10
229.0888778377
 20
269.1296721595
 10
228.442086552
 20
268.9960729913
 10
227.8210934207
 20
268.8265190429
 10
227.2318789474
 20
268.6226432114
 10
226.6801175894
 20
268.3864089326
 10
226.1711231102
 20
268.1200912717
  0
LWPOLYLINE
  5
C3
330
1F
100
AcDbEntity
  8
0
  6
Continuous
 62
     7
370
    25
100
AcDbPolyline
 90
       54
 70
   128
 43
0.0
 10
227.7621133679
 20
267.2016321459
 10
227.3884372966
 20
266.9586946635
 10
227.067156407
 20
266.6919486125
 10
226.8027807785
 20
266.4051385229
 10
226.5990216655
 20
266.1022905796
 10
226.4587393991
 20
265.7876561039
 10
226.383903235
 20
265.4656518742
 10
226.3755637089
 20
265.1407981239
 10
226.4338378894
 20
264.8176550877
 10
226.5579077347
 20
264.5007589854
 10
226.7460315762
 20
264.1945583437
 10
226.9955685675
 20
263.9033515483
 10
227.3030157563
 20
263.6312265045
 10
227.6640572579
 20
263.3820032512
 10
228.0736248412
 20
263.1591803366
 10
228.5259690749
 20
262.965885706
 10
229.0147400377
 20
262.8048327924
 10
229.5330764566
 20
262.6782824256
 10
230.0737020244
 20
262.5880110953
 10
230.6290275434
 20
262.5352860132
 10
231.1912574604
 20
262.5208473238
 10
231.7524992998
 20
262.5448977147
 10
232.3048744566
 20
262.6070995712
 10
232.8406287943
 20
262.7065797154
 10
233.3522414964
 20
262.8419416642
 10
233.8325306421
 20
263.0112852326
 10
234.2747540245
 20
263.2122332081
 10
234.6727037967
 20
263.4419647217
 10
235.0207936162
 20
263.6972548463
 10
235.314137065
 20
263.9745198683
 10
235.5486162441
 20
264.2698675946
 10
235.7209395798
 20
264.5791519905
 10
235.8286880302
 20
264.8980313809
 10
235.8703490433
 20
265.2220293984
 10
235.8453377896
 20
265.5465978208
 10
235.7540053725
 20
265.8671804191
 10
235.5976338989
 20
266.1792769163
 10
235.3784184814
 20
266.4785061616
 10
235.099436424
 20
266.7606676324
 10
234.7646040233
 20
267.0218004002
 10
234.3786215921
 20
267.2582387333
 10
233.9469074778
 20
267.4666635558
 10
233.4755220002
 20
267.64414904
 10
232.9710823781
 20
267.7882036788
 10
232.4406698381
 20
267.8968052608
 10
231.8917302094
 20
267.9684292579
 10
231.3319694014
 20
268.0020702263
 10
230.7692452285
 20
267.9972559203
 10
230.2114571048
 20
267.9540539223
 10
229.6664351528
 20
267.8730706938
 10
229.1418302861
 20
267.7554430616
 10
228.6450068069
 20
267.6028222599
 10
228.1829390279
 20
267.4173507502
 10
227.7621133679
 20
267.2016321459
  0
LWPOLYLINE
  5
C4
330
1F
100
AcDbEntity
  8
0
  6
Continuous
 62
     7
370
    25
100
AcDbPolyline
 90
       87
 70
   128
 43
0.0
 10
215.3781482113
 20
240.5769944452
 10
215.4017277152
 20
241.308427956
 10
215.47234042
 20
242.0087346369
 10
215.5896095765
 20
242.6741780487
 10
215.7529095028
 20
243.3012077628
 10
215.9613689233
 20
243.8864783045
 10
216.2138756168
 20
244.4268670022
 10
216.5090823508
 20
244.9194906483
 10
216.8454140696
 20
245.3617208826
 10
217.221076298
 20
245.7511982154
 10
217.6340647154
 20
246.0858446166
 10
218.08217585
 20
246.3638746029
 10
218.563018835
 20
246.5838047641
 10
219.0740281651
 20
246.7444616775
 10
219.6124773842
 20
246.844988169
 10
220.175493633
 20
246.8848478863
 10
220.760072976
 20
246.8638281605
 10
221.3630964296
 20
246.782041141
 10
221.9813466027
 20
246.6399231969
 10
222.6115248631
 20
246.4382325889
 10
223.2502689372
 20
246.1780454237
 10
223.894170849
 20
245.8607499124
 10
224.5397951032
 20
245.4880389639
 10
225.183697015
 20
245.0619011522
 10
225.8224410891
 20
244.5846101071
 10
226.4526193496
 20
244.0587123827
 10
227.0708695227
 20
243.4870138709
 10
227.6738929763
 20
242.8725648307
 10
228.2584723193
 20
242.2186436136
 10
228.821488568
 20
241.5287391721
 10
229.3599377872
 20
240.806532445
 10
229.8709471172
 20
240.0558767177
 10
230.3517901022
 20
239.2807770631
 10
230.7999012368
 20
238.4853689735
 10
231.2128896543
 20
237.673896295
 10
231.5885518827
 20
236.8506885855
 10
231.9248836015
 20
236.0201380143
 10
232.2200903354
 20
235.1866759281
 10
232.4725970289
 20
234.3547492077
 10
232.6810564494
 20
233.5287965422
 10
232.8443563758
 20
232.7132247463
 10
232.9616255322
 20
231.9123852485
 10
233.0322382371
 20
231.1305508739
 10
233.055817741
 20
230.3718930474
 10
233.0322382371
 20
229.6404595365
 10
232.9616255322
 20
228.9401528556
 10
232.8443563758
 20
228.2747094438
 10
232.6810564494
 20
227.6476797297
 10
232.4725970289
 20
227.062409188
 10
232.2200903354
 20
226.5220204904
 10
231.9248836015
 20
226.0293968442
 10
231.5885518827
 20
225.58716661
 10
231.2128896543
 20
225.1976892772
 10
230.7999012368
 20
224.8630428759
 10
230.3517901022
 20
224.5850128896
 10
229.8709471172
 20
224.3650827284
 10
229.3599377872
 20
224.204425815
 10
228.821488568
 20
224.1038993235
 10
228.2584723193
 20
224.0640396063
 10
227.6738929763
 20
224.085059332
 10
227.0708695227
 20
224.1668463516
 10
226.4526193496
 20
224.3089642957
 10
225.8224410891
 20
224.5106549036
 10
225.183697015
 20
224.7708420688
 10
224.5397951032
 20
225.0881375801
 10
223.894170849
 20
225.4608485286
 10
223.2502689372
 20
225.8869863403
 10
222.6115248631
 20
226.3642773854
 10
221.9813466027
 20
226.8901751098
 10
221.3630964296
 20
227.4618736216
 10
220.760072976
 20
228.0763226618
 10
220.175493633
 20
228.7302438789
 10
219.6124773842
 20
229.4201483204
 10
219.0740281651
 20
230.1423550475
 10
218.563018835
 20
230.8930107749
 10
218.08217585
 20
231.6681104294
 10
217.6340647154
 20
232.4635185191
 10
217.221076298
 20
233.2749911976
 10
216.8454140696
 20
234.0981989071
 10
216.5090823508
 20
234.9287494782
 10
216.2138756168
 20
235.7622115644
 10
215.9613689233
 20
236.5941382848
 10
215.7529095028
 20
237.4200909503
 10
215.5896095765
 20
238.2356627462
 10
215.47234042
 20
239.0365022441
 10
215.4017277152
 20
239.8183366186
 10
215.3781482113
 20
240.5769944452
  0
LWPOLYLINE
  5
C5
330
1F
100
AcDbEntity
  8
0
  6
Continuous
 62
     7
370
    25
100
AcDbPolyline
 90
       33
 70
   128
 43
0.0
 10
224.1214036143
 20
213.6074150768
 10
224.1545774918
 20
213.2611949344
 10
224.2553736157
 20
212.8689208496
 10
224.4222882284
 20
212.4842391289
 10
224.653713851
 20
212.1108544673
 10
224.9474217281
 20
211.7523627634
 10
225.3005832924
 20
211.4122164881
 10
225.709797405
 20
211.0936914361
 10
226.1711231102
 20
210.7998551778
 10
226.6801175894
 20
210.5335375169
 10
227.2318789474
 20
210.2973032381
 10
227.8210934207
 20
210.0934274066
 10
228.442086552
 20
209.9238734582
 10
229.0888778377
 20
209.79027429
 10
229.7552383244
 20
209.6939165352
 10
230.4347505962
 20
209.6357281714
 10
231.1208705785
 20
209.6162695846
 10
231.8069905608
 20
209.6357281714
 10
232.4865028326
 20
209.6939165352
 10
233.1528633193
 20
209.79027429
 10
233.7996546051
 20
209.9238734582
 10
234.4206477363
 20
210.0934274066
 10
235.0098622097
 20
210.2973032381
 10
235.5616235677
 20
210.5335375169
 10
236.0706180468
 20
210.7998551778
 10
236.5319437521
 20
211.0936914361
 10
236.9411578646
 20
211.4122164881
 10
237.294319429
 20
211.7523627634
 10
237.5880273061
 20
212.1108544673
 10
237.8194529287
 20
212.4842391289
 10
237.9863675414
 20
212.8689208496
 10
238.0871636652
 20
213.2611949344
 10
238.1203375428
 20
213.6074150768
  0
LWPOLYLINE
  5
C6
330
1F
100
AcDbEntity
  8
0
  6
Continuous
 62
     1
370
    25
100
AcDbPolyline
 90
       54
 70
   128
 43
0.0
 10
215.6980409957
 20
251.9178775448
 10
216.1708741561
 20
252.1617210742
 10
216.7679232198
 20
252.4014528209
 10
217.3941692428
 20
252.5820515329
 10
218.047370427
 20
252.7028707136
 10
218.7251884817
 20
252.7634778617
 10
219.4251969941
 20
252.7636560194
 10
220.1448901155
 20
252.7034045489
 10
220.8816915312
 20
252.5829391348
 10
221.6329636834
 20
252.4026910121
 10
222.3960172127
 20
252.1633054222
 10
223.1681205857
 20
251.8656393035
 10
223.9465098725
 20
251.5107582233
 10
224.7283986417
 20
251.0999325639
 10
225.5109879342
 20
250.6346329744
 10
226.2914762836
 20
250.1165251067
 10
227.0670697441
 20
249.5474636525
 10
227.8349918924
 20
248.9294857039
 10
228.5924937666
 20
248.2648034619
 10
229.3368637065
 20
247.5557963162
 10
230.0654370609
 20
246.8050023283
 10
230.7756057263
 20
246.0151091461
 10
231.4648274833
 20
245.1889443819
 10
232.1306350967
 20
244.3294654913
 10
232.7706451482
 20
243.4397491856
 10
233.3825665679
 20
242.5229804184
 10
233.9642088358
 20
241.5824409837
 10
234.5134898237
 20
240.6214977688
 10
235.0284432481
 20
239.6435907008
 10
235.5072257094
 20
238.6522204334
 10
235.9481232908
 20
237.6509358148
 10
236.3495576932
 20
236.643321184
 10
236.7100918858
 20
235.63298354
 10
237.0284352495
 20
234.6235396292
 10
237.303448198
 20
233.6186029989
 10
237.5341462561
 20
232.6217710613
 10
237.7197035847
 20
231.6366122162
 10
237.8594559367
 20
230.6666530765
 10
237.952903035
 20
229.7153658442
 10
237.9997103632
 20
228.7861558807
 10
237.9997103632
 20
227.8823495164
 10
237.952903035
 20
227.0071821436
 10
237.8594559367
 20
226.1637866345
 10
237.7197035847
 20
225.3551821258
 10
237.5341462561
 20
224.5842632121
 10
237.303448198
 20
223.8537895829
 10
237.0284352495
 20
223.1663761442
 10
236.7100918858
 20
222.5244836577
 10
236.3495576932
 20
221.9304099319
 10
235.9481232908
 20
221.3862815966
 10
235.5072257094
 20
220.8940464899
 10
235.0284432481
 20
220.4554666859
 10
234.5134898237
 20
220.0721121864
 10
234.1733380342
 20
219.8607438481
  0
LWPOLYLINE
  5
C7
330
1F
100
AcDbEntity
  8
0
  6
Continuous
 62
     1
370
    25
100
AcDbPolyline
 90
       54
 70
   128
 43
0.0
 10
256.1089299421
 20
275.2466541745
 10
256.6049626177
 20
275.5038234924
 10
257.2020116814
 20
275.7435552392
 10
257.8282577045
 20
275.9241539512
 10
258.4814588887
 20
276.0449731319
 10
259.1592769434
 20
276.10558028
 10
259.8592854558
 20
276.1057584377
 10
260.5789785771
 20
276.0455069672
 10
261.3157799928
 20
275.9250415531
 10
262.067052145
 20
275.7447934304
 10
262.8301056744
 20
275.5054078405
 10
263.6022090473
 20
275.2077417218
 10
264.3805983342
 20
274.8528606416
 10
265.1624871033
 20
274.4420349822
 10
265.9450763958
 20
273.9767353927
 10
266.7255647452
 20
273.458627525
 10
267.5011582057
 20
272.8895660707
 10
268.269080354
 20
272.2715881222
 10
269.0265822282
 20
271.6069058802
 10
269.7709521681
 20
270.8978987344
 10
270.4995255225
 20
270.1471047466
 10
271.209694188
 20
269.3572115643
 10
271.8989159449
 20
268.5310468002
 10
272.5647235584
 20
267.6715679096
 10
273.2047336098
 20
266.7818516039
 10
273.8166550295
 20
265.8650828366
 10
274.3982972974
 20
264.924543402
 10
274.9475782853
 20
263.963600187
 10
275.4625317097
 20
262.9856931191
 10
275.9413141711
 20
261.9943228517
 10
276.3822117524
 20
260.9930382331
 10
276.7836461549
 20
259.9854236023
 10
277.1441803474
 20
258.9750859583
 10
277.4625237112
 20
257.9656420475
 10
277.7375366596
 20
256.9607054171
 10
277.9682347177
 20
255.9638734796
 10
278.1537920463
 20
254.9787146345
 10
278.2935443983
 20
254.0087554948
 10
278.3869914966
 20
253.0574682625
 10
278.4337988248
 20
252.1282582989
 10
278.4337988248
 20
251.2244519347
 10
278.3869914966
 20
250.3492845619
 10
278.2935443983
 20
249.5058890527
 10
278.1537920463
 20
248.6972845441
 10
277.9682347177
 20
247.9263656304
 10
277.7375366596
 20
247.1958920012
 10
277.4625237112
 20
246.5084785624
 10
277.1441803474
 20
245.8665860759
 10
276.7836461549
 20
245.2725123501
 10
276.3822117524
 20
244.7283840148
 10
275.9413141711
 20
244.2361489082
 10
275.4625317097
 20
243.7975691042
 10
274.9475782853
 20
243.4142146047
 10
274.6074264958
 20
243.2028462664
  0
LINE
  5
C8
330
1F
100
AcDbEntity
  8
0
  6
Continuous
 62
     7
370
    25
100
AcDbLine
 10
-5.8588046585
 20
155.9478425974
 30
0.0
 11
-7.4067793084
 21
155.9478425974
 31
0.0
  0
LINE
  5
C9
330
1F
100
AcDbEntity
  8
0
  6
Continuous
 62
     7
370
    25
100
AcDbLine
 10
49.7756569763
 20
155.9478425974
 30
0.0
 11
8.5672626423
 21
155.9478425974
 31
0.0
  0
LINE
  5
CA
330
1F
100
AcDbEntity
  8
0
  6
Continuous
 62
     7
370
    25
100
AcDbLine
 10
8.5604333076
 20
118.9478425974
 30
0.0
 11
49.7756569763
 21
118.9478425974
 31
0.0
  0
LINE
  5
CB
330
1F
100
AcDbEntity
  8
0
  6
Continuous
 62
     7
370
    25
100
AcDbLine
 10
-7.4067793084
 20
118.9478425974
 30
0.0
 11
-5.8548423798
 21
118.9478425974
 31
0.0
  0
ARC
  5
CC
330
1F
100
AcDbEntity
  8
0
  6
Continuous
 62
     7
370
    25
100
AcDbCircle
 10
49.7756569763
 20
152.9478425974
 30
0.0
 40
3.0
100
AcDbArc
 50
13.3761693665
 51
90.0
  0
ARC
  5
CD
330
1F
100
AcDbEntity
  8
0
  6
Continuous
 62
     7
370
    25
100
AcDbCircle
 10
49.7756569763
 20
121.9478425974
 30
0.0
 40
3.0
100
AcDbArc
 50
270.0
 51
346.6238306335
  0
ARC
  5
CE
330
1F
100
AcDbEntity
  8
0
  6
Continuous
 62
     7
370
    25
100
AcDbCircle
 10
-7.4067793084
 20
154.9478425974
 30
0.0
 40
1.000000000000001
100
AcDbArc
 50
90.0
 51
180.0
  0
ARC
  5
CF
330
1F
100
AcDbEntity
  8
0
  6
Continuous
 62
     7
370
    25
100
AcDbCircle
 10
-7.4067793084
 20
119.9478425974
 30
0.0
 40
1.000000000000001
100
AcDbArc
 50
180.0
 51
270.0
  0
ARC
  5
D0
330
1F
100
AcDbEntity
  8
0
  6
Continuous
 62
     7
370
    25
100
AcDbCircle
 10
-15.4067793084
 20
137.4478425974
 30
0.0
 40
70.00000000000001
100
AcDbArc
 50
346.6238306335
 51
0.0
  0
ARC
  5
D1
330
1F
100
AcDbEntity
  8
0
  6
Continuous
 62
     7
370
    25
100
AcDbCircle
 10
-15.4067793084
 20
137.4478425974
 30
0.0
 40
70.00000000000001
100
AcDbArc
 50
0.0
 51
13.3761693665
  0
LINE
  5
D2
330
1F
100
AcDbEntity
  8
0
  6
Continuous
 62
     7
370
    25
100
AcDbLine
 10
8.5855724444
 20
155.9410295713
 30
0.0
 11
8.3567921721
 21
169.0478425974
 31
0.0
  0
LINE
  5
D3
330
1F
100
AcDbEntity
  8
0
  6
Continuous
 62
     7
370
    25
100
AcDbLine
 10
-5.6432078279
 20
169.0478425974
 30
0.0
 11
-5.8719542584
 21
155.9429683711
 31
0.0
  0
LINE
  5
D4
330
1F
100
AcDbEntity
  8
0
  6
Continuous
 62
     7
370
    25
100
AcDbLine
 10
-5.8719804659
 20
118.9542182458
 30
0.0
 11
-5.6432078279
 21
105.8478425974
 31
0.0
  0
LINE
  5
D5
330
1F
100
AcDbEntity
  8
0
  6
Continuous
 62
     7
370
    25
100
AcDbLine
 10
8.3567921721
 20
105.8478425974
 30
0.0
 11
8.5856173499
 21
118.9572282558
 31
0.0
  0
SPLINE
  5
D6
330
1F
100
AcDbEntity
  8
0
  6
Continuous
 62
     7
370
    25
100
AcDbSpline
210
0.0
220
0.0
230
1.0
 70
     8
 71
     3
 72
    22
 73
    18
 74
     0
 42
0.00000001
 43
0.00000001
 40
0.0
 40
0.0
 40
0.0
 40
0.0
 40
0.0706865551295421
 40
0.1433305641988693
 40
0.2140473297463825
 40
0.2870525560307297
 40
0.3538032849216032
 40
0.4226477496517644
 40
0.4871181557546799
 40
0.5532708872983114
 40
0.6214716645349142
 40
0.6914168162573998
 40
0.7639060283502452
 40
0.8385575653618097
 40
0.9097112361896311
 40
0.9832046129575657
 40
1.0
 40
1.0
 40
1.0
 40
1.0
 10
6.434465918762664
 20
119.6828891903284
 30
0.0
 10
6.139388609788549
 20
119.7642575127833
 30
0.0
 10
5.541062703256039
 20
119.929247411414
 30
0.0
 10
4.489752609197685
 20
120.1525739822637
 30
0.0
 10
3.340429908004226
 20
120.3271284243777
 30
0.0
 10
2.154688605059286
 20
120.4249142108329
 30
0.0
 10
0.9557936327711687
 20
120.4382977075766
 30
0.0
 10
-0.1826323469457242
 20
120.3717654398038
 30
0.0
 10
-1.271757938861862
 20
120.2365549553682
 30
0.0
 10
-2.287319864393948
 20
120.0499028619918
 30
0.0
 10
-3.234163027303963
 20
119.8240281291855
 30
0.0
 10
-4.088308630814955
 20
119.5789896325309
 30
0.0
 10
-4.817965436983984
 20
119.3398914015048
 30
0.0
 10
-5.380394687480888
 20
119.1371586405482
 30
0.0
 10
-5.734741477091035
 20
119.0018912177417
 30
0.0
 10
-5.887174735956652
 20
118.9418351861392
 30
0.0
 10
-5.859913479769115
 20
118.9525354069537
 30
0.0
 10
-5.85484237978269
 20
118.9545258467652
 30
0.0
  0
SPLINE
  5
D7
330
1F
100
AcDbEntity
  8
0
  6
Continuous
 62
     7
370
    25
100
AcDbSpline
210
0.0
220
0.0
230
1.0
 70
     8
 71
     3
 72
    13
 73
     9
 74
     0
 42
0.00000001
 43
0.00000001
 40
0.0
 40
0.0
 40
0.0
 40
0.0
 40
0.1249978513776668
 40
0.3201916041046345
 40
0.5208598878217731
 40
0.7200559307673611
 40
0.9243878988654107
 40
1.0
 40
1.0
 40
1.0
 40
1.0
 10
8.560433307584061
 20
118.9576697292623
 30
0.0
 10
8.563356318011389
 20
118.9565306763391
 30
0.0
 10
8.57084383389446
 20
118.9536129047244
 30
0.0
 10
8.371229324919124
 20
119.0316959473965
 30
0.0
 10
8.001905019480073
 20
119.1712032303312
 30
0.0
 10
7.452778129865542
 20
119.3661509859725
 30
0.0
 10
6.903766961996943
 20
119.5454498003056
 30
0.0
 10
6.534266852907467
 20
119.6536615128912
 30
0.0
 10
6.434465918762664
 20
119.6828891903284
 30
0.0
  0
SPLINE
  5
D8
330
1F
100
AcDbEntity
  8
0
  6
Continuous
 62
     7
370
    25
100
AcDbSpline
210
0.0
220
0.0
230
1.0
 70
     8
 71
     3
 72
    12
 73
     8
 74
     0
 42
0.00000001
 43
0.00000001
 40
0.0
 40
0.0
 40
0.0
 40
0.0
 40
0.2101321154317508
 40
0.4261218723400264
 40
0.6363323719888752
 40
0.8532162326555022
 40
1.0
 40
1.0
 40
1.0
 40
1.0
 10
6.434465918762664
 20
155.2127960044767
 30
0.0
 10
6.703727102826219
 20
155.2938935747067
 30
0.0
 10
7.249755393960632
 20
155.4583493905042
 30
0.0
 10
7.868845950187755
 20
155.6762365394735
 30
0.0
 10
8.315895711310452
 20
155.8423311464483
 30
0.0
 10
8.558579057520998
 20
155.937265391234
 30
0.0
 10
8.564765618499594
 20
155.9397137150841
 30
0.0
 10
8.567262642313098
 20
155.9407019091677
 30
0.0
  0
SPLINE
  5
D9
330
1F
100
AcDbEntity
  8
0
  6
Continuous
 62
     7
370
    25
100
AcDbSpline
210
0.0
220
0.0
230
1.0
 70
     8
 71
     3
 72
    23
 73
    19
 74
     0
 42
0.00000001
 43
0.00000001
 40
0.0
 40
0.0
 40
0.0
 40
0.0
 40
0.0103657040184145
 40
0.0766386902390447
 40
0.1448346115934998
 40
0.2113334281121691
 40
0.2795588824033521
 40
0.3499610725334538
 40
0.422262276449928
 40
0.4950088744035491
 40
0.5700835059085038
 40
0.6390214020703654
 40
0.7102517768585335
 40
0.7748109783888828
 40
0.8411610738300207
 40
0.9074747411336624
 40
0.9754527883561899
 40
1.0
 40
1.0
 40
1.0
 40
1.0
 10
-5.858804658481098
 20
155.942723080413
 30
0.0
 10
-5.863030227464663
 20
155.9443785896708
 30
0.0
 10
-5.894271913686806
 20
155.9566185746221
 30
0.0
 10
-5.769266351808307
 20
155.9073960282103
 30
0.0
 10
-5.487158458262538
 20
155.7988362340764
 30
0.0
 10
-5.013542113574465
 20
155.6250082805046
 30
0.0
 10
-4.382889690734242
 20
155.4104188391105
 30
0.0
 10
-3.584022179090117
 20
155.1671559345104
 30
0.0
 10
-2.630898894390839
 20
154.920902573164
 30
0.0
 10
-1.536282480252279
 20
154.6994859060996
 30
0.0
 10
-0.3634675381055629
 20
154.5393607354704
 30
0.0
 10
0.8574719759209571
 20
154.4591075580365
 30
0.0
 10
2.035820060641753
 20
154.466361932376
 30
0.0
 10
3.176450837338772
 20
154.5523717308251
 30
0.0
 10
4.239488198172054
 20
154.7001400597287
 30
0.0
 10
5.241441618847809
 20
154.8987978556732
 30
0.0
 10
5.960043928491036
 20
155.0784153944708
 30
0.0
 10
6.334991320226142
 20
155.184619702565
 30
0.0
 10
6.43446591876266
 20
155.2127960044767
 30
0.0
  0
LINE
  5
DA
330
1F
100
AcDbEntity
  8
0
  6
Continuous
 62
     7
370
    25
100
AcDbLine
 10
-8.4067793084
 20
154.9478425974
 30
0.0
 11
-8.4067793084
 21
119.9478425974
 31
0.0
  0
LINE
  5
DB
330
1F
100
AcDbEntity
  8
0
  6
Continuous
 62
     7
370
    25
100
AcDbLine
 10
-5.6432078279
 20
169.0478425974
 30
0.0
 11
8.3567921721
 21
169.0478425974
 31
0.0
  0
LINE
  5
DC
330
1F
100
AcDbEntity
  8
0
  6
Continuous
 62
     7
370
    25
100
AcDbLine
 10
-5.6432078279
 20
105.8478425974
 30
0.0
 11
8.3567921721
 21
105.8478425974
 31
0.0
  0
LINE
  5
DD
330
1F
100
AcDbEntity
  8
0
  6
Continuous
 62
     1
370
    25
100
AcDbLine
 10
-7.4067793084
 20
155.9478425974
 30
0.0
 11
-7.4067793084
 21
118.9478425974
 31
0.0
  0
LINE
  5
DE
330
1F
100
AcDbEntity
  8
0
  6
Continuous
 62
     1
370
    25
100
AcDbLine
 10
49.7756569763
 20
155.9478425974
 30
0.0
 11
49.7756569763
 21
118.9478425974
 31
0.0
  0
LINE
  5
DF
330
1F
100
AcDbEntity
  8
0
  6
Continuous
 62
     1
370
    25
100
AcDbLine
 10
52.6942735263
 20
153.6418724481
 30
0.0
 11
52.6942735263
 21
121.2538127467
 31
0.0
  0
SPLINE
  5
E0
330
1F
100
AcDbEntity
  8
0
  6
Continuous
 62
     7
370
    25
100
AcDbSpline
210
0.0
220
0.0
230
1.0
 70
     8
 71
     3
 72
    63
 73
    59
 74
     0
 42
0.00000001
 43
0.00000001
 40
0.0
 40
0.0
 40
0.0
 40
0.0
 40
0.0098949753209742
 40
0.0273234251401108
 40
0.0447610326898877
 40
0.0622492739916501
 40
0.079823411792949
 40
0.0975090448364534
 40
0.1153201279034854
 40
0.133258742294809
 40
0.1513165902047046
 40
0.1694777926400966
 40
0.1877222673681577
 40
0.2060289113329454
 40
0.224378028346053
 40
0.2427527899660222
 40
0.2611398192030482
 40
0.279527547835425
 40
0.2979088818345283
 40
0.3162800194299947
 40
0.3346388936233664
 40
0.3529847154179484
 40
0.3713176089523758
 40
0.38963833366552
 40
0.4079480801549148
 40
0.4262483245787302
 40
0.444540727654457
 40
0.4628270665988473
 40
0.4811091907574287
 40
0.499388993762089
 40
0.5176683966901322
 40
0.5359490608985763
 40
0.5542325660883879
 40
0.5725208664710018
 40
0.5908159119295195
 40
0.6091196322852828
 40
0.6274339112186185
 40
0.6457605442460647
 40
0.6641011735859744
 40
0.6824571905562236
 40
0.70082959351931
 40
0.7192187866373828
 40
0.7376243026198152
 40
0.7560444329127605
 40
0.7744757544936737
 40
0.7929119576401165
 40
0.8113414326518108
 40
0.8297508195865809
 40
0.8481228784881217
 40
0.8664368616360199
 40
0.8846698162094999
 40
0.902799014453407
 40
0.9208053866633192
 40
0.9386773779500037
 40
0.9564142860046715
 40
0.9740281165754036
 40
0.9915433810480672
 40
0.9999999999999999
 40
0.9999999999999999
 40
0.9999999999999999
 40
0.9999999999999999
 10
57.44331657329694
 20
22.2817904780547
 30
0.0
 10
57.54853101880153
 20
22.3409364741818
 30
0.0
 10
57.83906423714203
 20
22.50425888228225
 30
0.0
 10
58.28105815842111
 20
22.82832114471585
 30
0.0
 10
58.76949220903433
 20
23.24703393886378
 30
0.0
 10
59.22196396070308
 20
23.71588723977434
 30
0.0
 10
59.63912189233704
 20
24.23074036522801
 30
0.0
 10
60.01929020587164
 20
24.79129254482062
 30
0.0
 10
60.36131963630898
 20
25.39602118382471
 30
0.0
 10
60.66386579445885
 20
26.0434074368583
 30
0.0
 10
60.92567390189502
 20
26.73151446556243
 30
0.0
 10
61.1456075383937
 20
27.45807899152156
 30
0.0
 10
61.32273474538314
 20
28.22052958970336
 30
0.0
 10
61.45636675498835
 20
29.0160695177258
 30
0.0
 10
61.54607110987826
 20
29.84175762816522
 30
0.0
 10
61.59165892629965
 20
30.69457985850293
 30
0.0
 10
61.59315859155595
 20
31.57147339059635
 30
0.0
 10
61.55079125482676
 20
32.46937517395946
 30
0.0
 10
61.46494224949938
 20
33.3852477005774
 30
0.0
 10
61.33613072303153
 20
34.31610636748049
 30
0.0
 10
61.16499157993788
 20
35.2589898884115
 30
0.0
 10
60.95226772886726
 20
36.21093831554941
 30
0.0
 10
60.69880503789895
 20
37.16898956954039
 30
0.0
 10
60.40554943313739
 20
38.13017842503822
 30
0.0
 10
60.07354508975226
 20
39.0915379454355
 30
0.0
 10
59.70393297172905
 20
40.05010305965173
 30
0.0
 10
59.2979492318686
 20
41.00291586305681
 30
0.0
 10
58.85692317474423
 20
41.94703221520648
 30
0.0
 10
58.38227461947635
 20
42.87952924346515
 30
0.0
 10
57.87551059061283
 20
43.79751341136555
 30
0.0
 10
57.33822403737629
 20
44.69812431500065
 30
0.0
 10
56.77209093798335
 20
45.57854213455909
 30
0.0
 10
56.17886191250624
 20
46.4360026725302
 30
0.0
 10
55.56035282877319
 20
47.26780959542512
 30
0.0
 10
54.91843660512058
 20
48.0713424354695
 30
0.0
 10
54.25504053535572
 20
48.84405716179413
 30
0.0
 10
53.5721397335928
 20
49.58349177404975
 30
0.0
 10
52.87175077558634
 20
50.28727082581914
 30
0.0
 10
52.15592590131083
 20
50.95310872578081
 30
0.0
 10
51.42674826587623
 20
51.57881171433518
 30
0.0
 10
50.68632888132792
 20
52.16227850738827
 30
0.0
 10
49.93680606913544
 20
52.70149977321653
 30
0.0
 10
49.18034841307277
 20
53.19455690662846
 30
0.0
 10
48.41916229789586
 20
53.63962103627647
 30
0.0
 10
47.65551331116639
 20
54.03494960164102
 30
0.0
 10
46.89177829135225
 20
54.37887985730128
 30
0.0
 10
46.13044459896057
 20
54.66986720996159
 30
0.0
 10
45.37412639495628
 20
54.90651969466051
 30
0.0
 10
44.62554945894852
 20
55.08764918891608
 30
0.0
 10
43.8875765399339
 20
55.21231703661687
 30
0.0
 10
43.16317231521199
 20
55.27991061340536
 30
0.0
 10
42.45535664021679
 20
55.29017468987062
 30
0.0
 10
41.76704242706154
 20
55.24336440451046
 30
0.0
 10
41.1011699596039
 20
55.13981258407546
 30
0.0
 10
40.45970212573801
 20
54.98144627545464
 30
0.0
 10
39.84690193346971
 20
54.76586907324243
 30
0.0
 10
39.35789127298681
 20
54.5518897707417
 30
0.0
 10
39.08517887351339
 20
54.39068645071426
 30
0.0
 10
38.99638189225058
 20
54.3381975715301
 30
0.0
  0
LINE
  5
E1
330
1F
100
AcDbEntity
  8
0
  6
Continuous
 62
     7
370
    25
100
AcDbLine
 10
34.7790511555
 20
20.1480642806
 30
0.0
 11
35.0199854302
 21
8.8781155156
 31
0.0
  0
LINE
  5
E2
330
1F
100
AcDbEntity
  8
0
  6
Continuous
 62
     7
370
    25
100
AcDbLine
 10
49.0189193586
 20
8.8781155156
 30
0.0
 11
49.2604899714
 21
20.1778296541
 31
0.0
  0
LINE
  5
E3
330
1F
100
AcDbEntity
  8
0
  6
Continuous
 62
     7
370
    25
100
AcDbLine
 10
17.0313930309
 20
-1.0560072862
 30
0.0
 11
35.0104724631
 21
9.3230943447
 31
0.0
  0
LINE
  5
E4
330
1F
100
AcDbEntity
  8
0
  6
Continuous
 62
     7
370
    25
100
AcDbLine
 10
49.2035971818
 20
17.5166108409
 30
0.0
 11
57.4654814925
 21
22.2860951321
 31
0.0
  0
LINE
  5
E5
330
1F
100
AcDbEntity
  8
0
  6
Continuous
 62
     7
370
    25
100
AcDbLine
 10
38.9669849387
 20
54.3299030402
 30
0.0
 11
-1.4671035229
 21
30.9878006219
 31
0.0
  0
LINE
  5
E6
330
1F
100
AcDbEntity
  8
0
  6
Continuous
 62
     7
370
    25
100
AcDbLine
 10
49.1770173731
 20
53.1880344037
 30
0.0
 11
49.0189193586
 21
60.5832318116
 31
0.0
  0
LINE
  5
E7
330
1F
100
AcDbEntity
  8
0
  6
Continuous
 62
     7
370
    25
100
AcDbLine
 10
35.0199854302
 20
60.5832318116
 30
0.0
 11
34.835307607
 21
51.9447364863
 31
0.0
  0
SPLINE
  5
E8
330
1F
100
AcDbEntity
  8
0
  6
Continuous
 62
     7
370
    25
100
AcDbSpline
210
0.0
220
0.0
230
1.0
 70
     8
 71
     3
 72
    22
 73
    18
 74
     0
 42
0.00000001
 43
0.00000001
 40
0.0
 40
0.0
 40
0.0
 40
0.0
 40
0.0579212929779273
 40
0.1226946505342247
 40
0.1875580697632657
 40
0.2527443764202342
 40
0.3184705636438197
 40
0.3849279410933391
 40
0.4522709296783788
 40
0.5206052608692442
 40
0.5899775613495465
 40
0.660369367765122
 40
0.7316987653491045
 40
0.8038313618116703
 40
0.8765993113908958
 40
0.9498240156822493
 40
1.0
 40
1.0
 40
1.0
 40
1.0
 10
-1.472073970154
 20
30.98163722898635
 30
0.0
 10
-1.65009966469051
 20
30.87469702064508
 30
0.0
 10
-2.027211418490497
 20
30.64816562233031
 30
0.0
 10
-2.563978151654395
 20
30.24069441618886
 30
0.0
 10
-3.087980685400251
 20
29.77587377679148
 30
0.0
 10
-3.574648566814668
 20
29.264228885128
 30
0.0
 10
-4.023932937642031
 20
28.70849743300111
 30
0.0
 10
-4.434519897833455
 20
28.10918927514044
 30
0.0
 10
-4.805311839001337
 20
27.46731415311902
 30
0.0
 10
-5.13499197021253
 20
26.78382814143311
 30
0.0
 10
-5.422151247501204
 20
26.06000462553551
 30
0.0
 10
-5.665356970453572
 20
25.29756151610164
 30
0.0
 10
-5.863173879165729
 20
24.49875354654194
 30
0.0
 10
-6.014691547467265
 20
23.66653058798304
 30
0.0
 10
-6.118152109705819
 20
22.80392457869507
 30
0.0
 10
-6.170442834367993
 20
22.01030814964139
 30
0.0
 10
-6.175822803750872
 20
21.50039531675786
 30
0.0
 10
-6.17801035442363
 20
21.29305953448172
 30
0.0
  0
SPLINE
  5
E9
330
1F
100
AcDbEntity
  8
0
  6
Continuous
 62
     7
370
    25
100
AcDbSpline
210
0.0
220
0.0
230
1.0
 70
     8
 71
     3
 72
    48
 73
    44
 74
     0
 42
0.00000001
 43
0.00000001
 40
0.0
 40
0.0
 40
0.0
 40
0.0
 40
0.0137998339417975
 40
0.0393016961602008
 40
0.0647744402454662
 40
0.0902191786468703
 40
0.1156224993256073
 40
0.1409778833528334
 40
0.1662838814100959
 40
0.1915426382276449
 40
0.2167587622318632
 40
0.2419385034206085
 40
0.2670891792389644
 40
0.2922187875007446
 40
0.317335753642325
 40
0.3424487697055175
 40
0.3675663529613478
 40
0.3926948227138339
 40
0.4178431693191895
 40
0.4430203525250453
 40
0.46823519075918
 40
0.4934961871901126
 40
0.5188112546498107
 40
0.5441872916341387
 40
0.5696295489247024
 40
0.595140714734687
 40
0.6207196429103539
 40
0.646359668160635
 40
0.6720465194822121
 40
0.6977520511392955
 40
0.7234289488260703
 40
0.7490235126533596
 40
0.7744707563488872
 40
0.7996995040779773
 40
0.8246406380648966
 40
0.8492368706322098
 40
0.8734513775577526
 40
0.8972728819476932
 40
0.9207162815073998
 40
0.9438196221267133
 40
0.9666391185771025
 40
0.9892438177563866
 40
1.0
 40
1.0
 40
1.0
 40
1.0
 10
-6.17801035442363
 20
21.29305953448172
 30
0.0
 10
-6.176604589849293
 20
21.12701469454816
 30
0.0
 10
-6.172600995863555
 20
20.65412176876647
 30
0.0
 10
-6.129097737412524
 20
19.86173444791167
 30
0.0
 10
-6.033746320470112
 20
18.91387300644109
 30
0.0
 10
-5.892288185589459
 20
17.95550037012974
 30
0.0
 10
-5.706618285795845
 20
16.98979818670134
 30
0.0
 10
-5.47767858917551
 20
16.01967589834007
 30
0.0
 10
-5.206745936033212
 20
15.0480396479187
 30
0.0
 10
-4.89506143687558
 20
14.07768785951788
 30
0.0
 10
-4.543922013953015
 20
13.11137439329717
 30
0.0
 10
-4.154654538074602
 20
12.15181626348753
 30
0.0
 10
-3.7286239693619
 20
11.20170660463372
 30
0.0
 10
-3.267232802390909
 20
10.26371855179069
 30
0.0
 10
-2.771921923683907
 20
9.340505911224088
 30
0.0
 10
-2.244171905083952
 20
8.434705005706064
 30
0.0
 10
-1.685518401752111
 20
7.548957488704131
 30
0.0
 10
-1.097533361293049
 20
6.685871527066248
 30
0.0
 10
-0.4818161743965037
 20
5.848012938941362
 30
0.0
 10
0.1600338462357243
 20
5.037879204085026
 30
0.0
 10
0.8264034948197545
 20
4.257930035798472
 30
0.0
 10
1.515670235492553
 20
3.510589724629823
 30
0.0
 10
2.226204542295798
 20
2.7982527262016
 30
0.0
 10
2.956368182614772
 20
2.123292983482059
 30
0.0
 10
3.704505990424791
 20
1.488077092705032
 30
0.0
 10
4.468927993080758
 20
0.8949807087139383
 30
0.0
 10
5.247878243053589
 20
0.3464062952567293
 30
0.0
 10
6.03948682498593
 20
-0.1552017687580995
 30
0.0
 10
6.841662066905601
 20
-0.6073285965905346
 30
0.0
 10
7.651930574771399
 20
-1.007381405390279
 30
0.0
 10
8.467416522469643
 20
-1.352812429134039
 30
0.0
 10
9.284823373654671
 20
-1.641248640090666
 30
0.0
 10
10.10050880829561
 20
-1.870655030885335
 30
0.0
 10
10.91049804411695
 20
-2.039471602922036
 30
0.0
 10
11.71064947890138
 20
-2.146762411630483
 30
0.0
 10
12.49687906891471
 20
-2.192309902565369
 30
0.0
 10
13.26535438965937
 20
-2.176570440718648
 30
0.0
 10
14.01271692660449
 20
-2.100694893591927
 30
0.0
 10
14.73588404799808
 20
-1.965922347983522
 30
0.0
 10
15.43297133023867
 20
-1.775042559483162
 30
0.0
 10
16.09977333340702
 20
-1.526278000363587
 30
0.0
 10
16.63149692344768
 20
-1.285300645318486
 30
0.0
 10
16.92866146254546
 20
-1.108422293638951
 30
0.0
 10
17.02447295800195
 20
-1.051393351222913
 30
0.0
  0
LWPOLYLINE
  5
EA
330
1F
100
AcDbEntity
  8
0
  6
Continuous
 62
     7
370
    25
100
AcDbPolyline
 90
      103
 70
   128
 43
0.0
 10
36.548971326
 20
45.8597741205
 10
36.5724414355
 20
46.7258974795
 10
36.6427627337
 20
47.5616373244
 10
36.7596684679
 20
48.3638234076
 10
36.9227151745
 20
49.1294127626
 10
37.1312843616
 20
49.8555012467
 10
37.3845848549
 20
50.5393345576
 10
37.6816557987
 20
51.1783186814
 10
38.0213703013
 20
51.7700297322
 10
38.4024397091
 20
52.3122231476
 10
38.8234184953
 20
52.8028422021
 10
39.2827097434
 20
53.2400258096
 10
39.7785712041
 20
53.6221155829
 10
40.3091219052
 20
53.9476621247
 10
40.8723492861
 20
54.2154305253
 10
41.4661168325
 20
54.4244050477
 10
42.0881721806
 20
54.5737929797
 10
42.7361556614
 20
54.6630276419
 10
43.4076092517
 20
54.6917705365
 10
44.099985898
 20
54.6599126319
 10
44.8106591785
 20
54.5675747762
 10
45.5369332661
 20
54.4151072383
 10
46.2760531543
 20
54.2030883798
 10
47.0252151083
 20
53.9323224611
 10
47.7815773001
 20
53.6038365898
 10
48.542270589
 20
53.2188768254
 10
49.3044094046
 20
52.7789034523
 10
50.0651026934
 20
52.28558544
 10
50.8214648853
 20
51.7407941128
 10
51.5706268393
 20
51.1465960508
 10
52.3097467275
 20
50.5052452507
 10
53.036020815
 20
49.8191745759
 10
53.7466940956
 20
49.0909865274
 10
54.4390707419
 20
48.3234433719
 10
55.1105243322
 20
47.5194566634
 10
55.758507813
 20
46.682076199
 10
56.3805631611
 20
45.8144784496
 10
56.9743307075
 20
44.9199545106
 10
57.5375580884
 20
44.0018976177
 10
58.0681087895
 20
43.0637902751
 10
58.5639702502
 20
42.1091910455
 10
59.0232614982
 20
41.1417210505
 10
59.4442402845
 20
40.1650502352
 10
59.8253096923
 20
39.1828834467
 10
60.1650241949
 20
38.19894638
 10
60.4620951387
 20
37.2169714453
 10
60.7153956319
 20
36.2406836099
 10
60.9239648191
 20
35.2737862681
 10
61.0870115257
 20
34.3199471926
 10
61.2039172599
 20
33.3827846218
 10
61.2742385581
 20
32.4658535342
 10
61.2977086675
 20
31.5726321636
 10
61.2742385581
 20
30.7065088046
 10
61.2039172599
 20
29.8707689597
 10
61.0870115257
 20
29.0685828765
 10
60.9239648191
 20
28.3029935215
 10
60.7153956319
 20
27.5769050374
 10
60.4620951387
 20
26.8930717264
 10
60.1650241949
 20
26.2540876027
 10
59.8253096923
 20
25.6623765518
 10
59.4442402845
 20
25.1201831365
 10
59.0232614982
 20
24.629564082
 10
58.5639702502
 20
24.1923804745
 10
58.0681087895
 20
23.8102907012
 10
57.5375580884
 20
23.4847441594
 10
56.9743307075
 20
23.2169757587
 10
56.3805631611
 20
23.0080012364
 10
55.758507813
 20
22.8586133044
 10
55.1105243322
 20
22.7693786422
 10
54.4390707419
 20
22.7406357476
 10
53.7466940956
 20
22.7724936522
 10
53.036020815
 20
22.8648315079
 10
52.3097467275
 20
23.0172990458
 10
51.5706268393
 20
23.2293179043
 10
50.8214648853
 20
23.500083823
 10
50.0651026934
 20
23.8285696943
 10
49.3044094046
 20
24.2135294586
 10
48.542270589
 20
24.6535028318
 10
47.7815773001
 20
25.1468208441
 10
47.0252151083
 20
25.6916121713
 10
46.2760531543
 20
26.2858102333
 10
45.5369332661
 20
26.9271610333
 10
44.8106591785
 20
27.6132317082
 10
44.099985898
 20
28.3414197567
 10
43.4076092517
 20
29.1089629122
 10
42.7361556614
 20
29.9129496207
 10
42.0881721806
 20
30.7503300851
 10
41.4661168325
 20
31.6179278345
 10
40.8723492861
 20
32.5124517735
 10
40.3091219052
 20
33.4305086664
 10
39.7785712041
 20
34.3686160089
 10
39.2827097434
 20
35.3232152386
 10
38.8234184953
 20
36.2906852336
 10
38.4024397091
 20
37.2673560488
 10
38.0213703013
 20
38.2495228374
 10
37.6816557987
 20
39.2334599041
 10
37.3845848549
 20
40.2154348388
 10
37.1312843616
 20
41.1917226741
 10
36.9227151745
 20
42.158620016
 10
36.7596684679
 20
43.1124590915
 10
36.6427627337
 20
44.0496216623
 10
36.5724414355
 20
44.9665527499
 10
36.548971326
 20
45.8597741205
  0
LINE
  5
EB
330
1F
100
AcDbEntity
  8
0
  6
Continuous
 62
     7
370
    25
100
AcDbLine
 10
38.9669849387
 20
54.3299030402
 30
0.0
 11
38.990184454
 21
54.3432288288
 31
0.0
  0
LINE
  5
EC
330
1F
100
AcDbEntity
  8
0
  6
Continuous
 62
     7
370
    25
100
AcDbLine
 10
57.4654814925
 20
22.2860951321
 30
0.0
 11
57.4488577919
 21
22.2765329028
 31
0.0
  0
SPLINE
  5
ED
330
1F
100
AcDbEntity
  8
0
  6
Continuous
 62
     7
370
    25
100
AcDbSpline
210
0.0
220
0.0
230
1.0
 70
     8
 71
     3
 72
    27
 73
    23
 74
     0
 42
0.00000001
 43
0.00000001
 40
0.0
 40
0.0
 40
0.0
 40
0.0
 40
0.0226636942291687
 40
0.0764378114141601
 40
0.1318159895375196
 40
0.1845993723716008
 40
0.2391184013490132
 40
0.288691143595863
 40
0.3397450873107284
 40
0.3887567785492911
 40
0.4390571139928385
 40
0.4906566642512097
 40
0.5436183386629276
 40
0.5975734560393788
 40
0.6531977523384802
 40
0.7051646549676593
 40
0.758886570635485
 40
0.8071130547766369
 40
0.8567300781335997
 40
0.905332711086924
 40
0.9551585423976217
 40
1.0
 40
1.0
 40
1.0
 40
1.0
 10
49.23695382492141
 20
20.17847227522659
 30
0.0
 10
49.24385858506695
 20
20.24874432768459
 30
0.0
 10
49.26714626043567
 20
20.48575078564138
 30
0.0
 10
49.0928743117427
 20
20.89860388610694
 30
0.0
 10
48.71535259281499
 20
21.41382893701602
 30
0.0
 10
48.12485056571979
 20
21.93836877224043
 30
0.0
 10
47.38123453514508
 20
22.44386791918343
 30
0.0
 10
46.49817408213929
 20
22.93023888387934
 30
0.0
 10
45.53446329244183
 20
23.37243578786168
 30
0.0
 10
44.48340537115124
 20
23.77260111515368
 30
0.0
 10
43.37350288720319
 20
24.11335188334801
 30
0.0
 10
42.20436210139574
 20
24.38032184409596
 30
0.0
 10
41.00322317373368
 20
24.54653947987126
 30
0.0
 10
39.79561903174848
 20
24.58291933836487
 30
0.0
 10
38.65108622095636
 20
24.4611332652218
 30
0.0
 10
37.59923570470114
 20
24.16928560464349
 30
0.0
 10
36.71337141563067
 20
23.72804424455535
 30
0.0
 10
35.98391994133176
 20
23.15119459462655
 30
0.0
 10
35.42787204488819
 20
22.4824433330506
 30
0.0
 10
35.03482732365573
 20
21.72236896466637
 30
0.0
 10
34.80181341013491
 20
20.93457660599902
 30
0.0
 10
34.7943778132562
 20
20.40076810022605
 30
0.0
 10
34.79085576243997
 20
20.1479167536391
 30
0.0
  0
LWPOLYLINE
  5
EE
330
1F
100
AcDbEntity
  8
0
  6
Continuous
 62
     7
370
    25
100
AcDbPolyline
 90
       65
 70
   128
 43
0.0
 10
37.0697049261
 20
11.7854123993
 10
37.5786994052
 20
12.0517300603
 10
38.1304607632
 20
12.2879643391
 10
38.7196752366
 20
12.4918401705
 10
39.3406683678
 20
12.6613941189
 10
39.9874596536
 20
12.7949932871
 10
40.6538201403
 20
12.891351042
 10
41.3333324121
 20
12.9495394057
 10
42.0194523944
 20
12.9689979926
 10
42.7055723767
 20
12.9495394057
 10
43.3850846485
 20
12.891351042
 10
44.0514451352
 20
12.7949932871
 10
44.6982364209
 20
12.6613941189
 10
45.3192295522
 20
12.4918401705
 10
45.9084440255
 20
12.2879643391
 10
46.4602053835
 20
12.0517300603
 10
46.9691998627
 20
11.7854123993
 10
47.4305255679
 20
11.491576141
 10
47.8397396805
 20
11.173051089
 10
48.1929012448
 20
10.8329048138
 10
48.486609122
 20
10.4744131098
 10
48.7180347445
 20
10.1010284483
 10
48.8849493572
 20
9.7163467275
 10
48.9857454811
 20
9.3240726428
 10
49.0194523944
 20
8.927984008
 10
48.9857454811
 20
8.5318953732
 10
48.8849493572
 20
8.1396212884
 10
48.7180347445
 20
7.7549395677
 10
48.486609122
 20
7.3815549061
 10
48.1929012448
 20
7.0230632022
 10
47.8397396805
 20
6.6829169269
 10
47.4305255679
 20
6.3643918749
 10
46.9691998627
 20
6.0705556166
 10
46.4602053835
 20
5.8042379557
 10
45.9084440255
 20
5.5680036769
 10
45.3192295522
 20
5.3641278454
 10
44.6982364209
 20
5.194573897
 10
44.0514451352
 20
5.0609747288
 10
43.3850846485
 20
4.964616974
 10
42.7055723767
 20
4.9064286102
 10
42.0194523944
 20
4.8869700234
 10
41.3333324121
 20
4.9064286102
 10
40.6538201403
 20
4.964616974
 10
39.9874596536
 20
5.0609747288
 10
39.3406683678
 20
5.194573897
 10
38.7196752366
 20
5.3641278454
 10
38.1304607632
 20
5.5680036769
 10
37.5786994052
 20
5.8042379557
 10
37.0697049261
 20
6.0705556166
 10
36.6083792208
 20
6.3643918749
 10
36.1991651083
 20
6.6829169269
 10
35.8460035439
 20
7.0230632022
 10
35.5522956668
 20
7.3815549061
 10
35.3208700443
 20
7.7549395677
 10
35.1539554316
 20
8.1396212884
 10
35.0531593077
 20
8.5318953732
 10
35.0194523944
 20
8.927984008
 10
35.0531593077
 20
9.3240726428
 10
35.1539554316
 20
9.7163467275
 10
35.3208700443
 20
10.1010284483
 10
35.5522956668
 20
10.4744131098
 10
35.8460035439
 20
10.8329048138
 10
36.1991651083
 20
11.173051089
 10
36.6083792208
 20
11.491576141
 10
37.0697049261
 20
11.7854123993
  0
LWPOLYLINE
  5
EF
330
1F
100
AcDbEntity
  8
0
  6
Continuous
 62
     7
370
    25
100
AcDbPolyline
 90
       54
 70
   128
 43
0.0
 10
38.6606951837
 20
10.8669532735
 10
39.0815208438
 20
11.0826718778
 10
39.5435886228
 20
11.2681433875
 10
40.0404121019
 20
11.4207641892
 10
40.5650169687
 20
11.5383918214
 10
41.1100389207
 20
11.61937505
 10
41.6678270444
 20
11.6625770479
 10
42.2305512172
 20
11.6673913539
 10
42.7903120253
 20
11.6337503856
 10
43.3392516539
 20
11.5621263884
 10
43.869664194
 20
11.4535248064
 10
44.3741038161
 20
11.3094701676
 10
44.8454892937
 20
11.1319846834
 10
45.277203408
 20
10.9235598609
 10
45.6631858391
 20
10.6871215278
 10
45.9980182398
 20
10.4259887601
 10
46.2770002972
 20
10.1438272892
 10
46.4962157147
 20
9.8445980439
 10
46.6525871884
 20
9.5325015467
 10
46.7439196055
 20
9.2119189484
 10
46.7689308591
 20
8.887350526
 10
46.7272698461
 20
8.5633525086
 10
46.6195213957
 20
8.2444731181
 10
46.44719806
 20
7.9351887222
 10
46.2127188809
 20
7.639840996
 10
45.9193754321
 20
7.3625759739
 10
45.5712856125
 20
7.1072858493
 10
45.1733358403
 20
6.8775543358
 10
44.7311124579
 20
6.6766063602
 10
44.2508233123
 20
6.5072627918
 10
43.7392106102
 20
6.371900843
 10
43.2034562725
 20
6.2724206988
 10
42.6510811157
 20
6.2102188424
 10
42.0898392762
 20
6.1861684515
 10
41.5276093592
 20
6.2006071409
 10
40.9722838403
 20
6.253332223
 10
40.4316582724
 20
6.3436035532
 10
39.9133218536
 20
6.47015392
 10
39.4245508908
 20
6.6312068337
 10
38.972206657
 20
6.8245014642
 10
38.5626390738
 20
7.0473243788
 10
38.2015975721
 20
7.2965476321
 10
37.8941503833
 20
7.568672676
 10
37.644613392
 20
7.8598794713
 10
37.4564895505
 20
8.166080113
 10
37.3324197052
 20
8.4829762153
 10
37.2741455247
 20
8.8061192515
 10
37.2824850509
 20
9.1309730018
 10
37.357321215
 20
9.4529772315
 10
37.4976034813
 20
9.7676117072
 10
37.7013625944
 20
10.0704596505
 10
37.9657382229
 20
10.3572697401
 10
38.2870191125
 20
10.6240157911
 10
38.6606951837
 20
10.8669532735
  0
LWPOLYLINE
  5
F0
330
1F
100
AcDbEntity
  8
0
  6
Continuous
 62
     7
370
    25
100
AcDbPolyline
 90
       87
 70
   128
 43
0.0
 10
40.084505232
 20
43.8187538409
 10
40.1080847359
 20
44.5501873518
 10
40.1786974407
 20
45.2504940327
 10
40.2959665971
 20
45.9159374445
 10
40.4592665235
 20
46.5429671586
 10
40.667725944
 20
47.1282377003
 10
40.9202326375
 20
47.668626398
 10
41.2154393714
 20
48.1612500441
 10
41.5517710902
 20
48.6034802784
 10
41.9274333186
 20
48.9929576112
 10
42.3404217361
 20
49.3276040124
 10
42.7885328707
 20
49.6056339987
 10
43.2693758557
 20
49.8255641599
 10
43.7803851857
 20
49.9862210733
 10
44.3188344049
 20
50.0867475648
 10
44.8818506536
 20
50.126607282
 10
45.4664299966
 20
50.1055875563
 10
46.0694534502
 20
50.0238005368
 10
46.6877036233
 20
49.8816825927
 10
47.3178818838
 20
49.6799919847
 10
47.9566259579
 20
49.4198048195
 10
48.6005278697
 20
49.1025093082
 10
49.2461521239
 20
48.7297983597
 10
49.8900540357
 20
48.303660548
 10
50.5287981098
 20
47.8263695029
 10
51.1589763703
 20
47.3004717785
 10
51.7772265434
 20
46.7287732667
 10
52.3802499969
 20
46.1143242265
 10
52.96482934
 20
45.4604030094
 10
53.5278455887
 20
44.7704985679
 10
54.0662948078
 20
44.0482918408
 10
54.5773041379
 20
43.2976361134
 10
55.0581471229
 20
42.5225364589
 10
55.5062582575
 20
41.7271283692
 10
55.919246675
 20
40.9156556907
 10
56.2949089033
 20
40.0924479813
 10
56.6312406221
 20
39.2618974101
 10
56.9264473561
 20
38.4284353239
 10
57.1789540496
 20
37.5965086035
 10
57.3874134701
 20
36.770555938
 10
57.5507133964
 20
35.9549841421
 10
57.6679825529
 20
35.1541446443
 10
57.7385952577
 20
34.3723102697
 10
57.7621747616
 20
33.6136524432
 10
57.7385952577
 20
32.8822189323
 10
57.6679825529
 20
32.1819122514
 10
57.5507133964
 20
31.5164688396
 10
57.3874134701
 20
30.8894391255
 10
57.1789540496
 20
30.3041685838
 10
56.9264473561
 20
29.7637798861
 10
56.6312406221
 20
29.27115624
 10
56.2949089033
 20
28.8289260057
 10
55.919246675
 20
28.4394486729
 10
55.5062582575
 20
28.1048022717
 10
55.0581471229
 20
27.8267722854
 10
54.5773041379
 20
27.6068421242
 10
54.0662948078
 20
27.4461852108
 10
53.5278455887
 20
27.3456587193
 10
52.96482934
 20
27.305799002
 10
52.3802499969
 20
27.3268187278
 10
51.7772265434
 20
27.4086057473
 10
51.1589763703
 20
27.5507236914
 10
50.5287981098
 20
27.7524142994
 10
49.8900540357
 20
28.0126014646
 10
49.2461521239
 20
28.3298969759
 10
48.6005278697
 20
28.7026079244
 10
47.9566259579
 20
29.1287457361
 10
47.3178818838
 20
29.6060367812
 10
46.6877036233
 20
30.1319345056
 10
46.0694534502
 20
30.7036330174
 10
45.4664299966
 20
31.3180820576
 10
44.8818506536
 20
31.9720032747
 10
44.3188344049
 20
32.6619077162
 10
43.7803851857
 20
33.3841144433
 10
43.2693758557
 20
34.1347701707
 10
42.7885328707
 20
34.9098698252
 10
42.3404217361
 20
35.7052779148
 10
41.9274333186
 20
36.5167505933
 10
41.5517710902
 20
37.3399583028
 10
41.2154393714
 20
38.170508874
 10
40.9202326375
 20
39.0039709602
 10
40.667725944
 20
39.8358976806
 10
40.4592665235
 20
40.6618503461
 10
40.2959665971
 20
41.477422142
 10
40.1786974407
 20
42.2782616398
 10
40.1080847359
 20
43.0600960144
 10
40.084505232
 20
43.8187538409
  0
LWPOLYLINE
  5
F1
330
1F
100
AcDbEntity
  8
0
  6
Continuous
 62
     7
370
    25
100
AcDbPolyline
 90
       25
 70
   128
 43
0.0
 10
37.0697049261
 20
63.3907917105
 10
37.5786994052
 20
63.6571093714
 10
38.1304607632
 20
63.8933436502
 10
38.7196752366
 20
64.0972194817
 10
39.3406683678
 20
64.2667734301
 10
39.9874596536
 20
64.4003725983
 10
40.6538201403
 20
64.4967303531
 10
41.3333324121
 20
64.5549187169
 10
42.0194523944
 20
64.5743773037
 10
42.7055723767
 20
64.5549187169
 10
43.3850846485
 20
64.4967303531
 10
44.0514451352
 20
64.4003725983
 10
44.6982364209
 20
64.2667734301
 10
45.3192295522
 20
64.0972194817
 10
45.9084440255
 20
63.8933436502
 10
46.4602053835
 20
63.6571093714
 10
46.9691998627
 20
63.3907917105
 10
47.4305255679
 20
63.0969554522
 10
47.8397396805
 20
62.7784304002
 10
48.1929012448
 20
62.438284125
 10
48.486609122
 20
62.079792421
 10
48.7180347445
 20
61.7064077594
 10
48.8849493572
 20
61.3217260387
 10
48.9857454811
 20
60.929451954
 10
49.0189193586
 20
60.5832318116
  0
ARC
  5
F2
330
1F
100
AcDbEntity
  8
0
  6
Continuous
 62
     7
370
    25
100
AcDbCircle
 10
38.5359067006
 20
60.1683587128
 30
0.0
 40
3.540313837537595
100
AcDbArc
 50
114.4654579309
 51
173.2703082239
  0
LWPOLYLINE
  5
F3
330
1F
100
AcDbEntity
  8
0
  6
Continuous
 62
     1
370
    25
100
AcDbPolyline
 90
       15
 70
   128
 43
0.0
 10
35.1347577636
 20
45.8597741205
 10
35.1581719072
 20
46.7496592729
 10
35.2283305211
 20
47.6093254727
 10
35.3449824559
 20
48.435695338
 10
35.5077101279
 20
49.2258106793
 10
35.7159310142
 20
49.9768430887
 10
35.9688997381
 20
50.686104065
 10
36.2657107372
 20
51.351054638
 10
36.6053015052
 20
51.9693144573
 10
36.9864563953
 20
52.5386703131
 10
37.4078109719
 20
53.0570840593
 10
37.867856895
 20
53.5226999093
 10
38.3649473195
 20
53.933851079
 10
38.8973027908
 20
54.2890657541
 10
38.9669849387
 20
54.3299030402
  0
LWPOLYLINE
  5
F4
330
1F
100
AcDbEntity
  8
0
  6
Continuous
 62
     1
370
    25
100
AcDbPolyline
 90
       41
 70
   128
 43
0.0
 10
57.4488577919
 20
22.2765329028
 10
57.2563522941
 20
22.170706585
 10
56.6747100261
 20
21.9017170186
 10
56.0627886065
 20
21.6914576839
 10
55.422778555
 20
21.5406812549
 10
54.7569709416
 20
21.449927472
 10
54.0677491846
 20
21.4195212103
 10
53.3575805192
 20
21.4495713161
 10
52.6290071648
 20
21.539970218
 10
51.8846372249
 20
21.6903943114
 10
51.1271353507
 20
21.900305117
 10
50.3592132024
 20
22.1689512086
 10
49.5836197419
 20
22.495370903
 10
48.8031313925
 20
22.8783957024
 10
48.0205421
 20
23.3166544773
 10
47.2386533308
 20
23.8085783751
 10
46.460264044
 20
24.352406436
 10
45.688160671
 20
24.9461918966
 10
44.9251071416
 20
25.587809159
 10
44.1738349894
 20
26.2749614001
 10
43.4370335738
 20
27.0051887931
 10
42.7173404524
 20
27.7758773134
 10
42.01733194
 20
28.5842680962
 10
41.3395138853
 20
29.4274673124
 10
40.6863127011
 20
30.3024565274
 10
40.060066678
 20
31.2061035071
 10
39.4630176144
 20
32.1351734298
 10
38.8973027908
 20
33.0863404663
 10
38.3649473195
 20
34.0561996854
 10
37.867856895
 20
35.0412792428
 10
37.4078109719
 20
36.0380528095
 10
36.9864563953
 20
37.0429521947
 10
36.6053015052
 20
38.0523801195
 10
36.2657107372
 20
39.0627230938
 10
35.9688997381
 20
40.0703643521
 10
35.7159310142
 20
41.0716968001
 10
35.5077101279
 20
42.0631359276
 10
35.3449824559
 20
43.0411326397
 10
35.2283305211
 20
44.0021859622
 10
35.1581719072
 20
44.9428555735
 10
35.1347577636
 20
45.8597741205
  0
LWPOLYLINE
  5
F5
330
1F
100
AcDbEntity
  8
0
  6
Continuous
 62
     1
370
    25
100
AcDbPolyline
 90
       15
 70
   128
 43
0.0
 10
-5.299330698
 20
22.5176717022
 10
-5.2759165545
 20
23.4075568546
 10
-5.2057579405
 20
24.2672230544
 10
-5.0891060057
 20
25.0935929198
 10
-4.9263783338
 20
25.8837082611
 10
-4.7181574475
 20
26.6347406704
 10
-4.4651887236
 20
27.3440016467
 10
-4.1683777244
 20
28.0089522197
 10
-3.8287869564
 20
28.627212039
 10
-3.4476320663
 20
29.1965678948
 10
-3.0262774897
 20
29.7149816411
 10
-2.5662315666
 20
30.180597491
 10
-2.0691411421
 20
30.5917486607
 10
-1.5367856709
 20
30.9469633358
 10
-1.4671035229
 20
30.9878006219
  0
LWPOLYLINE
  5
F6
330
1F
100
AcDbEntity
  8
0
  6
Continuous
 62
     1
370
    25
100
AcDbPolyline
 90
       41
 70
   128
 43
0.0
 10
17.0313930309
 20
-1.0560072862
 10
16.8222638324
 20
-1.1713958333
 10
16.2406215645
 20
-1.4403853997
 10
15.6287001449
 20
-1.6506447343
 10
14.9886900934
 20
-1.8014211634
 10
14.3228824799
 20
-1.8921749462
 10
13.633660723
 20
-1.922581208
 10
12.9234920576
 20
-1.8925311022
 10
12.1949187031
 20
-1.8021322002
 10
11.4505487632
 20
-1.6517081069
 10
10.6930468891
 20
-1.4417973013
 10
9.9251247407
 20
-1.1731512096
 10
9.1495312802
 20
-0.8467315152
 10
8.3690429309
 20
-0.4637067159
 10
7.5864536383
 20
-0.025447941
 10
6.8045648692
 20
0.4664759568
 10
6.0261755823
 20
1.0103040177
 10
5.2540722094
 20
1.6040894783
 10
4.49101868
 20
2.2457067408
 10
3.7397465278
 20
2.9328589818
 10
3.0029451121
 20
3.6630863748
 10
2.2832519908
 20
4.4337748951
 10
1.5832434784
 20
5.242165678
 10
0.9054254237
 20
6.0853648941
 10
0.2522242395
 20
6.9603541091
 10
-0.3740217836
 20
7.8640010888
 10
-0.9710708473
 20
8.7930710115
 10
-1.5367856709
 20
9.744238048
 10
-2.0691411421
 20
10.7140972671
 10
-2.5662315666
 20
11.6991768246
 10
-3.0262774897
 20
12.6959503912
 10
-3.4476320663
 20
13.7008497765
 10
-3.8287869564
 20
14.7102777012
 10
-4.1683777244
 20
15.7206206756
 10
-4.4651887236
 20
16.7282619338
 10
-4.7181574475
 20
17.7295943818
 10
-4.9263783338
 20
18.7210335093
 10
-5.0891060057
 20
19.6990302214
 10
-5.2057579405
 20
20.6600835439
 10
-5.2759165545
 20
21.6007531552
 10
-5.299330698
 20
22.5176717022
  0
LINE
  5
F7
330
1F
100
AcDbEntity
  8
0
  6
Continuous
 62
     7
370
    25
100
AcDbLine
 10
118.899234026
 20
22.2185905674
 30
0.0
 11
118.899234026
 21
-34.9638457173
 31
0.0
  0
LINE
  5
F8
330
1F
100
AcDbEntity
  8
0
  6
Continuous
 62
     7
370
    25
100
AcDbLine
 10
155.899234026
 20
-34.9638457173
 30
0.0
 11
155.899234026
 21
22.2185905674
 31
0.0
  0
ARC
  5
F9
330
1F
100
AcDbEntity
  8
0
  6
Continuous
 62
     7
370
    25
100
AcDbCircle
 10
121.899234026
 20
22.2185905674
 30
0.0
 40
3.0
100
AcDbArc
 50
103.3761693665
 51
180.0
  0
ARC
  5
FA
330
1F
100
AcDbEntity
  8
0
  6
Continuous
 62
     7
370
    25
100
AcDbCircle
 10
152.899234026
 20
22.2185905674
 30
0.0
 40
3.0
100
AcDbArc
 50
0.0
 51
76.6238306335
  0
ARC
  5
FB
330
1F
100
AcDbEntity
  8
0
  6
Continuous
 62
     7
370
    25
100
AcDbCircle
 10
119.899234026
 20
-34.9638457173
 30
0.0
 40
1.0
100
AcDbArc
 50
180.0
 51
270.0
  0
ARC
  5
FC
330
1F
100
AcDbEntity
  8
0
  6
Continuous
 62
     7
370
    25
100
AcDbCircle
 10
154.899234026
 20
-34.9638457173
 30
0.0
 40
1.0
100
AcDbArc
 50
270.0
 51
0.0
  0
ARC
  5
FD
330
1F
100
AcDbEntity
  8
0
  6
Continuous
 62
     7
370
    25
100
AcDbCircle
 10
137.399234026
 20
-42.9638457173
 30
0.0
 40
70.00000000000001
100
AcDbArc
 50
76.6238306335
 51
90.0
  0
ARC
  5
FE
330
1F
100
AcDbEntity
  8
0
  6
Continuous
 62
     7
370
    25
100
AcDbCircle
 10
137.399234026
 20
-42.9638457173
 30
0.0
 40
70.0
100
AcDbArc
 50
90.0
 51
103.3761693665
  0
SPLINE
  5
FF
330
1F
100
AcDbEntity
  8
0
  6
Continuous
 62
     7
370
    25
100
AcDbSpline
210
0.0
220
0.0
230
1.0
 70
    11
 71
     3
 72
    96
 73
    92
 74
     0
 42
0.00000001
 43
0.00000001
 40
0.0
 40
0.0
 40
0.0
 40
0.0
 40
0.03125
 40
0.03125
 40
0.046875
 40
0.046875
 40
0.0625
 40
0.0625
 40
0.0937499999999999
 40
0.0937499999999999
 40
0.1249999999999999
 40
0.1249999999999999
 40
0.1562499999999998
 40
0.1562499999999998
 40
0.1718749999999998
 40
0.1718749999999998
 40
0.1874999999999998
 40
0.1874999999999998
 40
0.2031249999999997
 40
0.2031249999999997
 40
0.2187499999999996
 40
0.2187499999999996
 40
0.2499999999999996
 40
0.2499999999999996
 40
0.2656249999999996
 40
0.2656249999999996
 40
0.2812499999999997
 40
0.2812499999999997
 40
0.3124999999999999
 40
0.3124999999999999
 40
0.3281250000000001
 40
0.3281250000000001
 40
0.3437500000000002
 40
0.3437500000000002
 40
0.3593750000000003
 40
0.3593750000000003
 40
0.3750000000000003
 40
0.3750000000000003
 40
0.4062500000000006
 40
0.4062500000000006
 40
0.4375000000000009
 40
0.4375000000000009
 40
0.4687500000000012
 40
0.4687500000000012
 40
0.5000000000000014
 40
0.5000000000000014
 40
0.5156250000000014
 40
0.5156250000000014
 40
0.5312500000000014
 40
0.5312500000000014
 40
0.5625000000000016
 40
0.5625000000000016
 40
0.5937500000000017
 40
0.5937500000000017
 40
0.6250000000000018
 40
0.6250000000000018
 40
0.6406250000000019
 40
0.6406250000000019
 40
0.6562500000000019
 40
0.6562500000000019
 40
0.6718750000000019
 40
0.6718750000000019
 40
0.687500000000002
 40
0.687500000000002
 40
0.7187500000000022
 40
0.7187500000000022
 40
0.7343750000000023
 40
0.7343750000000023
 40
0.7500000000000024
 40
0.7500000000000024
 40
0.7812500000000023
 40
0.7812500000000023
 40
0.7968750000000022
 40
0.7968750000000022
 40
0.8125000000000021
 40
0.8125000000000021
 40
0.828125000000002
 40
0.828125000000002
 40
0.8437500000000019
 40
0.8437500000000019
 40
0.8750000000000016
 40
0.8750000000000016
 40
0.9062500000000012
 40
0.9062500000000012
 40
0.9375000000000009
 40
0.9375000000000009
 40
0.9531250000000007
 40
0.9531250000000007
 40
0.9687500000000004
 40
0.9687500000000004
 40
1.0
 40
1.0
 40
1.0
 40
1.0
 10
142.5622206078356
 20
-21.12260049014277
 30
0.0
 10
142.2292109600559
 20
-20.78640499214289
 30
0.0
 10
141.8687788736948
 20
-20.4877045744189
 30
0.0
 10
141.2872380998458
 20
-20.0932393142618
 30
0.0
 10
141.0865235924981
 20
-19.97075731855324
 30
0.0
 10
140.670752675848
 20
-19.74426592019836
 30
0.0
 10
140.4549306071478
 20
-19.64006634607279
 30
0.0
 10
139.7997083100158
 20
-19.36255290606621
 30
0.0
 10
139.3484791419846
 20
-19.22137074089316
 30
0.0
 10
138.4163793379907
 20
-19.02732894196817
 30
0.0
 10
137.9317775552137
 20
-18.97546689722983
 30
0.0
 10
136.9778322767173
 20
-18.96818317335284
 30
0.0
 10
136.5032807628473
 20
-19.01099112077542
 30
0.0
 10
135.795148494344
 20
-19.14652256591368
 30
0.0
 10
135.5613151371126
 20
-19.20349504071849
 30
0.0
 10
135.1051504121694
 20
-19.33856997348518
 30
0.0
 10
134.8816911908817
 20
-19.4168774490033
 30
0.0
 10
134.4437557287642
 20
-19.59465699461772
 30
0.0
 10
134.2292797335821
 20
-19.69412903236935
 30
0.0
 10
133.8093035101712
 20
-19.91452497580092
 30
0.0
 10
133.6036568996826
 20
-20.0357174519054
 30
0.0
 10
133.0127200555885
 20
-20.42391801024242
 30
0.0
 10
132.6486327324372
 20
-20.71744319581941
 30
0.0
 10
132.1457211675252
 20
-21.21014636227182
 30
0.0
 10
131.9845666419541
 20
-21.38416559185423
 30
0.0
 10
131.6817029006222
 20
-21.74521806734081
 30
0.0
 10
131.5400036468383
 20
-21.93199935592067
 30
0.0
 10
131.1432980829277
 20
-22.51102198940529
 30
0.0
 10
130.916364354067
 20
-22.9217302484019
 30
0.0
 10
130.6347389909671
 20
-23.57814769144106
 30
0.0
 10
130.5513696968789
 20
-23.80264108337784
 30
0.0
 10
130.4083688999745
 20
-24.25494752428928
 30
0.0
 10
130.3482265476538
 20
-24.48390888733608
 30
0.0
 10
130.2505666712493
 20
-24.94749775482493
 30
0.0
 10
130.213048221837
 20
-25.18212500480115
 30
0.0
 10
130.1612393177745
 20
-25.65724458325757
 30
0.0
 10
130.146979706045
 20
-25.89933453324552
 30
0.0
 10
130.1409276432727
 20
-26.62100447018636
 30
0.0
 10
130.1846930479531
 20
-27.09537851821248
 30
0.0
 10
130.3650601552003
 20
-28.03116268930043
 30
0.0
 10
130.5037490138008
 20
-28.49505456378034
 30
0.0
 10
130.8623029530059
 20
-29.36995895840172
 30
0.0
 10
131.0825894206585
 20
-29.78623130622519
 30
0.0
 10
131.606677987021
 20
-30.57742654808856
 30
0.0
 10
131.9027535874066
 20
-30.94063756460463
 30
0.0
 10
132.3958448070015
 20
-31.4393784726168
 30
0.0
 10
132.5684775879714
 20
-31.59793567775762
 30
0.0
 10
132.9308705085892
 20
-31.89947627071159
 30
0.0
 10
133.1209731928296
 20
-32.04251716588698
 30
0.0
 10
133.7053650029307
 20
-32.43914547896931
 30
0.0
 10
134.1173317069046
 20
-32.66394174937889
 30
0.0
 10
134.9876626880977
 20
-33.03401277021594
 30
0.0
 10
135.4500249604296
 20
-33.17914736987679
 30
0.0
 10
136.3809425050134
 20
-33.37301873997933
 30
0.0
 10
136.8539610616841
 20
-33.42439705842372
 30
0.0
 10
137.575302864588
 20
-33.43077776083255
 30
0.0
 10
137.8177459970781
 20
-33.42083682684068
 30
0.0
 10
138.2946443975983
 20
-33.37761310036278
 30
0.0
 10
138.5306268034527
 20
-33.34439113768989
 30
0.0
 10
138.9977788849546
 20
-33.25518976166669
 30
0.0
 10
139.2289484213089
 20
-33.19920998774539
 30
0.0
 10
139.6864660934619
 20
-33.06427135333946
 30
0.0
 10
139.9138856753447
 20
-32.98479333536947
 30
0.0
 10
140.5754335781839
 20
-32.71639212446887
 30
0.0
 10
140.992263811432
 20
-32.49736357760779
 30
0.0
 10
141.5831234965772
 20
-32.10999658173896
 30
0.0
 10
141.7751571872847
 20
-31.97027981351552
 30
0.0
 10
142.1431409065234
 20
-31.6739078914653
 30
0.0
 10
142.3184877047143
 20
-31.51790306261999
 30
0.0
 10
142.819624248016
 20
-31.0268584952381
 30
0.0
 10
143.1207774055612
 20
-30.66905163656636
 30
0.0
 10
143.5222888712381
 20
-30.08370506767167
 30
0.0
 10
143.6467817323091
 20
-29.88152797923425
 30
0.0
 10
143.8737701580112
 20
-29.46904999087183
 30
0.0
 10
143.9768718124818
 20
-29.25788484224299
 30
0.0
 10
144.1623963254935
 20
-28.8255531999949
 30
0.0
 10
144.2448202726596
 20
-28.60438743709462
 30
0.0
 10
144.3884239572765
 20
-28.1516052500588
 30
0.0
 10
144.4498870361255
 20
-27.91849509496526
 30
0.0
 10
144.5981034135216
 20
-27.21439611064658
 30
0.0
 10
144.6492357290324
 20
-26.74121287249196
 30
0.0
 10
144.6577133421376
 20
-25.78731842819213
 30
0.0
 10
144.6133367091367
 20
-25.30148015123092
 30
0.0
 10
144.4323050899861
 20
-24.36509213705276
 30
0.0
 10
144.2966930917584
 20
-23.91053976690149
 30
0.0
 10
144.0255625546243
 20
-23.24861345978536
 30
0.0
 10
143.924136429632
 20
-23.03242881697546
 30
0.0
 10
143.7029937129166
 20
-22.61537202700219
 30
0.0
 10
143.5828591317834
 20
-22.41344468428828
 30
0.0
 10
143.1941365174926
 20
-21.82678132675806
 30
0.0
 10
142.8952302556153
 20
-21.45879598814264
 30
0.0
 10
142.5622206078356
 20
-21.12260049014277
 30
0.0
  0
CIRCLE
  5
100
330
1F
100
AcDbEntity
  8
0
  6
Continuous
 62
     7
370
    25
100
AcDbCircle
 10
137.399234026
 20
-26.2002742368
 30
0.0
 40
7.0
  0
CIRCLE
  5
101
330
1F
100
AcDbEntity
  8
0
  6
Continuous
 62
     7
370
    25
100
AcDbCircle
 10
137.399234026
 20
-26.2002742368
 30
0.0
 40
4.75
  0
LINE
  5
102
330
1F
100
AcDbEntity
  8
0
  6
Continuous
 62
     7
370
    25
100
AcDbLine
 10
119.899234026
 20
-35.9638457173
 30
0.0
 11
154.899234026
 21
-35.9638457173
 31
0.0
  0
LINE
  5
103
330
1F
100
AcDbEntity
  8
0
  6
Continuous
 62
     1
370
    25
100
AcDbLine
 10
118.899234026
 20
-34.9638457173
 30
0.0
 11
155.899234026
 21
-34.9638457173
 31
0.0
  0
LINE
  5
104
330
1F
100
AcDbEntity
  8
0
  6
Continuous
 62
     1
370
    25
100
AcDbLine
 10
118.899234026
 20
22.2185905674
 30
0.0
 11
155.899234026
 21
22.2185905674
 31
0.0
  0
LINE
  5
105
330
1F
100
AcDbEntity
  8
0
  6
Continuous
 62
     1
370
    25
100
AcDbLine
 10
121.2052041752
 20
25.1372071174
 30
0.0
 11
153.5932638767
 21
25.1372071174
 31
0.0
  0
INSERT
  5
111
330
1F
100
AcDbEntity
  8
FORMAT
 62
     7
100
AcDbBlockReference
  2
SW_CENTERMARKSYMBOL_1
 10
137.399234026
 20
-26.2002742368
 30
0.0
  0
SPLINE
  5
112
330
1F
100
AcDbEntity
  8
0
  6
Continuous
 62
     7
370
    25
100
AcDbSpline
210
0.0
220
0.0
230
1.0
 70
     8
 71
     3
 72
    49
 73
    45
 74
     0
 42
0.00000001
 43
0.00000001
 40
0.0
 40
0.0
 40
0.0
 40
0.0
 40
0.0142553120517142
 40
0.0375091450195681
 40
0.0607755682380472
 40
0.0841098857891894
 40
0.107559076744224
 40
0.1311572020722939
 40
0.1549227770725561
 40
0.1788584806461132
 40
0.2029531627512403
 40
0.2271855859095104
 40
0.2515289337323483
 40
0.2759550524989353
 40
0.3004376823771183
 40
0.3249543983234535
 40
0.3494873822988294
 40
0.3740212088919055
 40
0.3985464617893615
 40
0.4230580856085716
 40
0.4475533352873904
 40
0.4720311674
 40
0.4964917541231797
 40
0.520936113232136
 40
0.5453658362930358
 40
0.5697828948395164
 40
0.5941895059415646
 40
0.6185880416366051
 40
0.6429809698984262
 40
0.6673708176047993
 40
0.6917601481419272
 40
0.7161511727266405
 40
0.740546004716918
 40
0.7649472515330629
 40
0.7893575147157669
 40
0.8137793688652599
 40
0.8382153267332441
 40
0.8626677829883017
 40
0.8871389270740878
 40
0.9116306126556835
 40
0.9361441676396226
 40
0.9606801250816202
 40
0.9852378525324614
 40
1.0
 40
1.0
 40
1.0
 40
1.0
 10
250.9750689072009
 20
38.24020640567009
 30
0.0
 10
250.8629560797347
 20
38.30665940174707
 30
0.0
 10
250.5679603413931
 20
38.48151317259357
 30
0.0
 10
250.0575706781601
 20
38.70628956072983
 30
0.0
 10
249.4504744183479
 20
38.91937764943636
 30
0.0
 10
248.8180569097305
 20
39.07643504697216
 30
0.0
 10
248.1634456640245
 20
39.17985400358815
 30
0.0
 10
247.4877761945057
 20
39.22839812140029
 30
0.0
 10
246.792933509782
 20
39.22181656657765
 30
0.0
 10
246.0809096124662
 20
39.15971043882265
 30
0.0
 10
245.3540102309373
 20
39.04196206611605
 30
0.0
 10
244.6147651180236
 20
38.86872152251318
 30
0.0
 10
243.8658678348478
 20
38.64046971880139
 30
0.0
 10
243.1100849623574
 20
38.35801084129898
 30
0.0
 10
242.350179501948
 20
38.02244295138521
 30
0.0
 10
241.5888555238826
 20
37.63511119627347
 30
0.0
 10
240.8287507373219
 20
37.19757308343971
 30
0.0
 10
240.0724063839374
 20
36.71155282589903
 30
0.0
 10
239.3222595468411
 20
36.17890386987684
 30
0.0
 10
238.5806344862687
 20
35.60156881063034
 30
0.0
 10
237.8497777273979
 20
34.98157895699894
 30
0.0
 10
237.1318806720912
 20
34.32105845593357
 30
0.0
 10
236.4290851048358
 20
33.62222166726237
 30
0.0
 10
235.7434855030418
 20
32.88737115903043
 30
0.0
 10
235.0771286840554
 20
32.11889541973564
 30
0.0
 10
234.4320114269279
 20
31.31926579920764
 30
0.0
 10
233.8100766746606
 20
30.49103246551938
 30
0.0
 10
233.2132088350377
 20
29.63681933502606
 30
0.0
 10
232.6432285994643
 20
28.75931803016552
 30
0.0
 10
232.1018876108721
 20
27.86128097393998
 30
0.0
 10
231.5908658551572
 20
26.94551844788173
 30
0.0
 10
231.1117665744953
 20
26.0148922203756
 30
0.0
 10
230.6661074802152
 20
25.07230081819443
 30
0.0
 10
230.2553148632427
 20
24.12066521404077
 30
0.0
 10
229.8807207040383
 20
23.16291780515322
 30
0.0
 10
229.5435639679071
 20
22.20199999443999
 30
0.0
 10
229.2449872335129
 20
21.24085277968522
 30
0.0
 10
228.9860427256675
 20
20.28241250335533
 30
0.0
 10
228.7676670874161
 20
19.32959106699907
 30
0.0
 10
228.5907764766178
 20
18.38531987422504
 30
0.0
 10
228.4559146740039
 20
17.45236365389604
 30
0.0
 10
228.3645724610864
 20
16.53400496979968
 30
0.0
 10
228.3209624910933
 20
15.75172950769537
 30
0.0
 10
228.3167315991117
 20
15.28083550625248
 30
0.0
 10
228.3151431644719
 20
15.10404433625743
 30
0.0
  0
SPLINE
  5
113
330
1F
100
AcDbEntity
  8
0
  6
Continuous
 62
     7
370
    25
100
AcDbSpline
210
0.0
220
0.0
230
1.0
 70
     8
 71
     3
 72
    22
 73
    18
 74
     0
 42
0.00000001
 43
0.00000001
 40
0.0
 40
0.0
 40
0.0
 40
0.0
 40
0.0387084865459312
 40
0.1119009535068949
 40
0.1851285273145897
 40
0.2583230843589513
 40
0.3314294605926277
 40
0.4043771316587207
 40
0.4770821002448292
 40
0.5494526518862632
 40
0.6213996146158144
 40
0.6928503988783316
 40
0.763764275873949
 40
0.8341450415751752
 40
0.9040473622296278
 40
0.9735748134038789
 40
0.9999999999999999
 40
0.9999999999999999
 40
0.9999999999999999
 40
0.9999999999999999
 10
228.3151431644719
 20
15.10404433625743
 30
0.0
 10
228.316385978473
 20
14.94965326969047
 30
0.0
 10
228.3199787841898
 20
14.50332976021177
 30
0.0
 10
228.3598953885728
 20
13.78272439296277
 30
0.0
 10
228.4495627779086
 20
12.95290966441786
 30
0.0
 10
228.5844853775542
 20
12.15225919467038
 30
0.0
 10
228.763761163632
 20
11.38344641575709
 30
0.0
 10
228.9872242151599
 20
10.64952550589732
 30
0.0
 10
229.2541588995967
 20
9.953413923942348
 30
0.0
 10
229.5635800938842
 20
9.29797589474583
 30
0.0
 10
229.9141493352403
 20
8.685927216405668
 30
0.0
 10
230.3041406183363
 20
8.119606879633606
 30
0.0
 10
230.7317923700458
 20
7.601392667787026
 30
0.0
 10
231.1943377953177
 20
7.131775137324931
 30
0.0
 10
231.6920990484041
 20
6.716289405698074
 30
0.0
 10
232.1067328799786
 20
6.417256451665813
 30
0.0
 10
232.3649707019826
 20
6.27533317485279
 30
0.0
 10
232.4360889410555
 20
6.236247755636987
 30
0.0
  0
LINE
  5
114
330
1F
100
AcDbEntity
  8
0
  6
Continuous
 62
     7
370
    25
100
AcDbLine
 10
240.6452600472
 20
4.11721351
 30
0.0
 11
240.8868256922
 21
-7.1822682559
 31
0.0
  0
LINE
  5
115
330
1F
100
AcDbEntity
  8
0
  6
Continuous
 62
     7
370
    25
100
AcDbLine
 10
254.8857596207
 20
-7.1822682559
 30
0.0
 11
255.1266998466
 21
4.0879588868
 31
0.0
  0
LINE
  5
116
330
1F
100
AcDbEntity
  8
0
  6
Continuous
 62
     7
370
    25
100
AcDbLine
 10
291.3728485738
 20
14.9274168505
 30
0.0
 11
250.9387601121
 21
38.2695192687
 31
0.0
  0
LINE
  5
117
330
1F
100
AcDbEntity
  8
0
  6
Continuous
 62
     7
370
    25
100
AcDbLine
 10
232.4402635584
 20
6.2257113607
 30
0.0
 11
240.702147869
 21
1.4562270694
 31
0.0
  0
LINE
  5
118
330
1F
100
AcDbEntity
  8
0
  6
Continuous
 62
     7
370
    25
100
AcDbLine
 10
254.8952725877
 20
-6.7372894268
 30
0.0
 11
272.87435202
 21
-17.1163910576
 31
0.0
  0
LINE
  5
119
330
1F
100
AcDbEntity
  8
0
  6
Continuous
 62
     7
370
    25
100
AcDbLine
 10
255.0704374439
 20
35.8843527148
 30
0.0
 11
254.8857596207
 21
44.5228480401
 31
0.0
  0
LINE
  5
11A
330
1F
100
AcDbEntity
  8
0
  6
Continuous
 62
     7
370
    25
100
AcDbLine
 10
240.8868256922
 20
44.5228480401
 30
0.0
 11
240.7286663168
 21
37.1247804118
 31
0.0
  0
SPLINE
  5
11B
330
1F
100
AcDbEntity
  8
0
  6
Continuous
 62
     7
370
    25
100
AcDbSpline
210
0.0
220
0.0
230
1.0
 70
     8
 71
     3
 72
    63
 73
    59
 74
     0
 42
0.00000001
 43
0.00000001
 40
0.0
 40
0.0
 40
0.0
 40
0.0
 40
0.0059300070906791
 40
0.0225810807145474
 40
0.039224510628499
 40
0.0559183526566265
 40
0.0727208850441874
 40
0.0896852195135845
 40
0.106856611980048
 40
0.12426947292012
 40
0.1419444137693795
 40
0.1598859763601972
 40
0.1780818871934999
 40
0.1965045431485861
 40
0.2151148553964125
 40
0.2338677358020224
 40
0.252717875943216
 40
0.2716244541479123
 40
0.2905528506470958
 40
0.3094725431059139
 40
0.3283686602117984
 40
0.3472325301364777
 40
0.3660602629649238
 40
0.3848514667915927
 40
0.40360820954368
 40
0.4223342339957112
 40
0.4410343924245662
 40
0.459714255037612
 40
0.478379847933729
 40
0.497037483119081
 40
0.5156936505240189
 40
0.5343542023819822
 40
0.5530243379234506
 40
0.5717107363188176
 40
0.5904200384481701
 40
0.6091587562441703
 40
0.6279331292771196
 40
0.6467488990075133
 40
0.6656109631803111
 40
0.6845228633157623
 40
0.703486050361886
 40
0.7224988736851009
 40
0.7415552590598755
 40
0.760643102549693
 40
0.7797373951873477
 40
0.7988023065400908
 40
0.8177958660664965
 40
0.8366683440182587
 40
0.8553666085508946
 40
0.873840649004
 40
0.8920508291732188
 40
0.9099738365493008
 40
0.9276057259309816
 40
0.9449616885207599
 40
0.9620733610544397
 40
0.978984978039917
 40
0.9957494637892539
 40
1.0
 40
1.0
 40
1.0
 40
1.0
 10
272.876673737687
 20
-17.10982138998222
 30
0.0
 10
272.9473889895709
 20
-17.15278351324327
 30
0.0
 10
273.2166680622805
 20
-17.31638048002445
 30
0.0
 10
273.7145566713667
 20
-17.54702928359667
 30
0.0
 10
274.3657413292834
 20
-17.79991628183587
 30
0.0
 10
275.0410275926368
 20
-17.99501194324391
 30
0.0
 10
275.7362335559708
 20
-18.13645741494902
 30
0.0
 10
276.4506528741684
 20
-18.22270121680083
 30
0.0
 10
277.1827619867094
 20
-18.25356348112998
 30
0.0
 10
277.9312081911219
 20
-18.22835184597464
 30
0.0
 10
278.6943557918394
 20
-18.14646259261093
 30
0.0
 10
279.4702341388328
 20
-18.00736761384814
 30
0.0
 10
280.2564313289436
 20
-17.81080996846352
 30
0.0
 10
281.0500987306146
 20
-17.55694321103751
 30
0.0
 10
281.8480381423985
 20
-17.24643693359394
 30
0.0
 10
282.6468598826099
 20
-16.88050282017055
 30
0.0
 10
283.4431639102456
 20
-16.46084305123662
 30
0.0
 10
284.2336803377171
 20
-15.9895524812968
 30
0.0
 10
285.0153123211668
 20
-15.46903625872544
 30
0.0
 10
285.7852846950475
 20
-14.90184269966331
 30
0.0
 10
286.5411394537991
 20
-14.29055883795091
 30
0.0
 10
287.2807386756281
 20
-13.63769993097529
 30
0.0
 10
288.0021023385182
 20
-12.94577025213102
 30
0.0
 10
288.7033648719161
 20
-12.21726378698528
 30
0.0
 10
289.3827421356208
 20
-11.45467186715306
 30
0.0
 10
290.0385089734037
 20
-10.66049252207765
 30
0.0
 10
290.6689856072182
 20
-9.837238655903038
 30
0.0
 10
291.2725306412788
 20
-8.987443704487834
 30
0.0
 10
291.8475385686661
 20
-8.113664377773697
 30
0.0
 10
292.3924400198775
 20
-7.218480628285056
 30
0.0
 10
292.9056965386296
 20
-6.30450543386667
 30
0.0
 10
293.385798853138
 20
-5.374393577956265
 30
0.0
 10
293.8312853197807
 20
-4.430812812883121
 30
0.0
 10
294.2407478914556
 20
-3.476423272614713
 30
0.0
 10
294.6128327623379
 20
-2.513857703951365
 30
0.0
 10
294.946224970319
 20
-1.545741146564803
 30
0.0
 10
295.2396436852976
 20
-0.5746888093155593
 30
0.0
 10
295.4918358680872
 20
0.3966921267425441
 30
0.0
 10
295.7015689130803
 20
1.365794866440447
 30
0.0
 10
295.8676235896782
 20
2.329997268591328
 30
0.0
 10
295.9887896446957
 20
3.286635602539715
 30
0.0
 10
296.0638678961121
 20
4.232965735662925
 30
0.0
 10
296.0916844600309
 20
5.166111144403978
 30
0.0
 10
296.0711263188195
 20
6.082918253204292
 30
0.0
 10
296.0012287522721
 20
6.979877820378465
 30
0.0
 10
295.8812949748494
 20
7.853151059580479
 30
0.0
 10
295.711012259455
 20
8.69866425101611
 30
0.0
 10
295.4905614652917
 20
9.512217567681132
 30
0.0
 10
295.2207181992227
 20
10.2896064378404
 30
0.0
 10
294.902881044078
 20
11.02684633085244
 30
0.0
 10
294.539023891747
 20
11.72041215760893
 30
0.0
 10
294.1315376924944
 20
12.367349048799
 30
0.0
 10
293.6831627765254
 20
12.96550703360994
 30
0.0
 10
293.1964570796198
 20
13.51283873630989
 30
0.0
 10
292.675014064281
 20
14.00967396346997
 30
0.0
 10
292.1184558888073
 20
14.44984315948703
 30
0.0
 10
291.6830867486537
 20
14.75324945898357
 30
0.0
 10
291.4251193307006
 20
14.89263177891163
 30
0.0
 10
291.3729423758878
 20
14.92082349810742
 30
0.0
  0
LWPOLYLINE
  5
11C
330
1F
100
AcDbEntity
  8
0
  6
Continuous
 62
     7
370
    25
100
AcDbPolyline
 90
      103
 70
   128
 43
0.0
 10
228.6080363833
 20
15.5122483922
 10
228.6315064927
 20
16.4054697628
 10
228.7018277909
 20
17.3224008503
 10
228.8187335251
 20
18.2595634212
 10
228.9817802318
 20
19.2134024967
 10
229.1903494189
 20
20.1802998385
 10
229.4436499122
 20
21.1565876739
 10
229.740720856
 20
22.1385626085
 10
230.0804353585
 20
23.1224996753
 10
230.4615047663
 20
24.1046664638
 10
230.8824835526
 20
25.081337279
 10
231.3417748006
 20
26.048807274
 10
231.8376362614
 20
27.0034065037
 10
232.3681869625
 20
27.9415138463
 10
232.9314143434
 20
28.8595707391
 10
233.5251818897
 20
29.7540946782
 10
234.1472372378
 20
30.6216924276
 10
234.7952207187
 20
31.459072892
 10
235.466674309
 20
32.2630596004
 10
236.1590509553
 20
33.030602756
 10
236.8697242358
 20
33.7587908045
 10
237.5959983234
 20
34.4448614793
 10
238.3351182116
 20
35.0862122794
 10
239.0842801656
 20
35.6804103414
 10
239.8406423574
 20
36.2252016686
 10
240.6013356462
 20
36.7185196809
 10
241.3634744619
 20
37.158493054
 10
242.1241677507
 20
37.5434528184
 10
242.8805299425
 20
37.8719386896
 10
243.6296918965
 20
38.1427046084
 10
244.3688117847
 20
38.3547234668
 10
245.0950858723
 20
38.5071910047
 10
245.8057591528
 20
38.5995288605
 10
246.4981357991
 20
38.6313867651
 10
247.1695893894
 20
38.6026438704
 10
247.8175728703
 20
38.5134092083
 10
248.4396282184
 20
38.3640212763
 10
249.0333957647
 20
38.1550467539
 10
249.5966231456
 20
37.8872783532
 10
250.1271738467
 20
37.5617318115
 10
250.6230353075
 20
37.1796420381
 10
251.0823265555
 20
36.7424584307
 10
251.5033053418
 20
36.2518393762
 10
251.8843747496
 20
35.7096459608
 10
252.2240892521
 20
35.1179349099
 10
252.5211601959
 20
34.4789507862
 10
252.7744606892
 20
33.7951174753
 10
252.9830298763
 20
33.0690289912
 10
253.146076583
 20
32.3034396362
 10
253.2629823172
 20
31.501253553
 10
253.3333036154
 20
30.6655137081
 10
253.3567737248
 20
29.7993903491
 10
253.3333036154
 20
28.9061689785
 10
253.2629823172
 20
27.9892378909
 10
253.146076583
 20
27.05207532
 10
252.9830298763
 20
26.0982362445
 10
252.7744606892
 20
25.1313389027
 10
252.5211601959
 20
24.1550510674
 10
252.2240892521
 20
23.1730761327
 10
251.8843747496
 20
22.1891390659
 10
251.5033053418
 20
21.2069722774
 10
251.0823265555
 20
20.2303014622
 10
250.6230353075
 20
19.2628314672
 10
250.1271738467
 20
18.3082322375
 10
249.5966231456
 20
17.370124895
 10
249.0333957647
 20
16.4520680021
 10
248.4396282184
 20
15.5575440631
 10
247.8175728703
 20
14.6899463136
 10
247.1695893894
 20
13.8525658492
 10
246.4981357991
 20
13.0485791408
 10
245.8057591528
 20
12.2810359853
 10
245.0950858723
 20
11.5528479367
 10
244.3688117847
 20
10.8667772619
 10
243.6296918965
 20
10.2254264619
 10
242.8805299425
 20
9.6312283999
 10
242.1241677507
 20
9.0864370727
 10
241.3634744619
 20
8.5931190604
 10
240.6013356462
 20
8.1531456872
 10
239.8406423574
 20
7.7681859229
 10
239.0842801656
 20
7.4397000516
 10
238.3351182116
 20
7.1689341328
 10
237.5959983234
 20
6.9569152744
 10
236.8697242358
 20
6.8044477365
 10
236.1590509553
 20
6.7121098807
 10
235.466674309
 20
6.6802519762
 10
234.7952207187
 20
6.7089948708
 10
234.1472372378
 20
6.7982295329
 10
233.5251818897
 20
6.947617465
 10
232.9314143434
 20
7.1565919873
 10
232.3681869625
 20
7.424360388
 10
231.8376362614
 20
7.7499069298
 10
231.3417748006
 20
8.1319967031
 10
230.8824835526
 20
8.5691803106
 10
230.4615047663
 20
9.0597993651
 10
230.0804353585
 20
9.6019927804
 10
229.740720856
 20
10.1937038313
 10
229.4436499122
 20
10.832687955
 10
229.1903494189
 20
11.5165212659
 10
228.9817802318
 20
12.24260975
 10
228.8187335251
 20
13.008199105
 10
228.7018277909
 20
13.8103851883
 10
228.6315064927
 20
14.6461250331
 10
228.6080363833
 20
15.5122483922
  0
LINE
  5
11D
330
1F
100
AcDbEntity
  8
0
  6
Continuous
 62
     7
370
    25
100
AcDbLine
 10
250.9387601121
 20
38.2695192687
 30
0.0
 11
250.9747475253
 21
38.2485819058
 31
0.0
  0
SPLINE
  5
11E
330
1F
100
AcDbEntity
  8
0
  6
Continuous
 62
     7
370
    25
100
AcDbSpline
210
0.0
220
0.0
230
1.0
 70
     8
 71
     3
 72
    28
 73
    24
 74
     0
 42
0.00000001
 43
0.00000001
 40
0.0
 40
0.0
 40
0.0
 40
0.0
 40
0.0066005673346093
 40
0.0590378384361837
 40
0.1129272038252963
 40
0.1653868858630712
 40
0.219544212323364
 40
0.2690617770238056
 40
0.3201325337509148
 40
0.3679584909877854
 40
0.4170324444674244
 40
0.4676256957404545
 40
0.5195129729799683
 40
0.5732875056260422
 40
0.6286661116035264
 40
0.681449902244235
 40
0.7359693524379496
 40
0.785542477685883
 40
0.8365968158456568
 40
0.8856088857505996
 40
0.9359096098166462
 40
0.9875095587353048
 40
1.0
 40
1.0
 40
1.0
 40
1.0
 10
255.1238118645164
 20
4.088035589091771
 30
0.0
 10
255.1252962793711
 20
4.125119880482039
 30
0.0
 10
255.1385734175196
 20
4.456815065551841
 30
0.0
 10
255.0519406402618
 20
5.093880366192844
 30
0.0
 10
254.7528230641298
 20
5.952170608661373
 30
0.0
 10
254.2468878612191
 20
6.743518444142697
 30
0.0
 10
253.5728154393905
 20
7.401588435931453
 30
0.0
 10
252.7468586354663
 20
7.914662316865521
 30
0.0
 10
251.8316552413401
 20
8.261374367215627
 30
0.0
 10
250.8277811060212
 20
8.460629881246952
 30
0.0
 10
249.7639694358998
 20
8.523197702275485
 30
0.0
 10
248.630586151982
 20
8.457514356966321
 30
0.0
 10
247.4454868507027
 20
8.270503355175077
 30
0.0
 10
246.2338243771118
 20
7.971940666297623
 30
0.0
 10
245.0562943636963
 20
7.584083406129222
 30
0.0
 10
243.9494292059136
 20
7.130161055180988
 30
0.0
 10
242.9882238337734
 20
6.651076763167187
 30
0.0
 10
242.1720194121194
 20
6.15670865973491
 30
0.0
 10
241.5333835565625
 20
5.673372149643837
 30
0.0
 10
241.0516705760568
 20
5.190494194083369
 30
0.0
 10
240.7556446477109
 20
4.712729641451951
 30
0.0
 10
240.6245681970308
 20
4.355465307344842
 30
0.0
 10
240.656909864907
 20
4.156774510210114
 30
0.0
 10
240.6632128644964
 20
4.118052078901037
 30
0.0
  0
LWPOLYLINE
  5
11F
330
1F
100
AcDbEntity
  8
0
  6
Continuous
 62
     7
370
    25
100
AcDbPolyline
 90
       65
 70
   128
 43
0.0
 10
242.9365451881
 20
-9.9898281548
 10
242.4752194829
 20
-9.6959918965
 10
242.0660053703
 20
-9.3774668445
 10
241.712843806
 20
-9.0373205693
 10
241.4191359289
 20
-8.6788288653
 10
241.1877103063
 20
-8.3054442038
 10
241.0207956936
 20
-7.920762483
 10
240.9199995697
 20
-7.5284883983
 10
240.8862926565
 20
-7.1323997635
 10
240.9199995697
 20
-6.7363111287
 10
241.0207956936
 20
-6.3440370439
 10
241.1877103063
 20
-5.9593553232
 10
241.4191359289
 20
-5.5859706616
 10
241.712843806
 20
-5.2274789577
 10
242.0660053703
 20
-4.8873326824
 10
242.4752194829
 20
-4.5688076304
 10
242.9365451881
 20
-4.2749713721
 10
243.4455396673
 20
-4.0086537112
 10
243.9973010253
 20
-3.7724194324
 10
244.5865154987
 20
-3.5685436009
 10
245.2075086299
 20
-3.3989896525
 10
245.8542999157
 20
-3.2653904843
 10
246.5206604023
 20
-3.1690327295
 10
247.2001726741
 20
-3.1108443657
 10
247.8862926565
 20
-3.0913857789
 10
248.5724126388
 20
-3.1108443657
 10
249.2519249106
 20
-3.1690327295
 10
249.9182853972
 20
-3.2653904843
 10
250.565076683
 20
-3.3989896525
 10
251.1860698142
 20
-3.5685436009
 10
251.7752842876
 20
-3.7724194324
 10
252.3270456456
 20
-4.0086537112
 10
252.8360401248
 20
-4.2749713721
 10
253.29736583
 20
-4.5688076304
 10
253.7065799426
 20
-4.8873326824
 10
254.0597415069
 20
-5.2274789577
 10
254.353449384
 20
-5.5859706616
 10
254.5848750066
 20
-5.9593553232
 10
254.7517896193
 20
-6.3440370439
 10
254.8525857432
 20
-6.7363111287
 10
254.8862926565
 20
-7.1323997635
 10
254.8525857432
 20
-7.5284883983
 10
254.7517896193
 20
-7.920762483
 10
254.5848750066
 20
-8.3054442038
 10
254.353449384
 20
-8.6788288653
 10
254.0597415069
 20
-9.0373205693
 10
253.7065799426
 20
-9.3774668445
 10
253.29736583
 20
-9.6959918965
 10
252.8360401248
 20
-9.9898281548
 10
252.3270456456
 20
-10.2561458157
 10
251.7752842876
 20
-10.4923800945
 10
251.1860698142
 20
-10.696255926
 10
250.565076683
 20
-10.8658098744
 10
249.9182853972
 20
-10.9994090426
 10
249.2519249106
 20
-11.0957667975
 10
248.5724126388
 20
-11.1539551612
 10
247.8862926565
 20
-11.1734137481
 10
247.2001726741
 20
-11.1539551612
 10
246.5206604023
 20
-11.0957667975
 10
245.8542999157
 20
-10.9994090426
 10
245.2075086299
 20
-10.8658098744
 10
244.5865154987
 20
-10.696255926
 10
243.9973010253
 20
-10.4923800945
 10
243.4455396673
 20
-10.2561458157
 10
242.9365451881
 20
-9.9898281548
  0
LWPOLYLINE
  5
120
330
1F
100
AcDbEntity
  8
0
  6
Continuous
 62
     7
370
    25
100
AcDbPolyline
 90
       54
 70
   128
 43
0.0
 10
244.5275354458
 20
-9.071369029
 10
244.1538593745
 20
-8.8284315466
 10
243.8325784849
 20
-8.5616854956
 10
243.5682028565
 20
-8.274875406
 10
243.3644437434
 20
-7.9720274627
 10
243.2241614771
 20
-7.657392987
 10
243.149325313
 20
-7.3353887573
 10
243.1409857868
 20
-7.010535007
 10
243.1992599673
 20
-6.6873919708
 10
243.3233298126
 20
-6.3704958685
 10
243.5114536541
 20
-6.0642952268
 10
243.7609906454
 20
-5.7730884315
 10
244.0684378342
 20
-5.5009633876
 10
244.4294793359
 20
-5.2517401343
 10
244.8390469191
 20
-5.0289172197
 10
245.2913911529
 20
-4.8356225892
 10
245.7801621156
 20
-4.6745696755
 10
246.2984985345
 20
-4.5480193087
 10
246.8391241024
 20
-4.4577479785
 10
247.3944496213
 20
-4.4050228963
 10
247.9566795383
 20
-4.390584207
 10
248.5179213778
 20
-4.4146345979
 10
249.0702965346
 20
-4.4768364543
 10
249.6060508723
 20
-4.5763165985
 10
250.1176635744
 20
-4.7116785473
 10
250.59795272
 20
-4.8810221157
 10
251.0401761024
 20
-5.0819700913
 10
251.4381258746
 20
-5.3117016048
 10
251.7862156941
 20
-5.5669917294
 10
252.0795591429
 20
-5.8442567514
 10
252.314038322
 20
-6.1396044777
 10
252.4863616577
 20
-6.4488888736
 10
252.5941101081
 20
-6.767768264
 10
252.6357711212
 20
-7.0917662815
 10
252.6107598676
 20
-7.4163347039
 10
252.5194274504
 20
-7.7369173022
 10
252.3630559768
 20
-8.0490137994
 10
252.1438405593
 20
-8.3482430447
 10
251.8648585019
 20
-8.6304045156
 10
251.5300261012
 20
-8.8915372833
 10
251.14404367
 20
-9.1279756164
 10
250.7123295558
 20
-9.3364004389
 10
250.2409440782
 20
-9.5138859231
 10
249.7365044561
 20
-9.6579405619
 10
249.206091916
 20
-9.7665421439
 10
248.6571522874
 20
-9.8381661411
 10
248.0973914793
 20
-9.8718071094
 10
247.5346673064
 20
-9.8669928034
 10
246.9768791827
 20
-9.8237908055
 10
246.4318572308
 20
-9.7428075769
 10
245.907252364
 20
-9.6251799447
 10
245.4104288848
 20
-9.472559143
 10
244.9483611058
 20
-9.2870876333
 10
244.5275354458
 20
-9.071369029
  0
LWPOLYLINE
  5
121
330
1F
100
AcDbEntity
  8
0
  6
Continuous
 62
     7
370
    25
100
AcDbPolyline
 90
       87
 70
   128
 43
0.0
 10
232.1435702892
 20
17.5532686717
 10
232.1671497931
 20
18.3119264983
 10
232.237762498
 20
19.0937608728
 10
232.3550316544
 20
19.8946003706
 10
232.5183315808
 20
20.7101721665
 10
232.7267910013
 20
21.5361248321
 10
232.9792976947
 20
22.3680515525
 10
233.2745044287
 20
23.2015136387
 10
233.6108361475
 20
24.0320642098
 10
233.9864983759
 20
24.8552719193
 10
234.3994867933
 20
25.6667445978
 10
234.847597928
 20
26.4621526875
 10
235.328440913
 20
27.237252342
 10
235.839450243
 20
27.9879080694
 10
236.3778994621
 20
28.7101147965
 10
236.9409157109
 20
29.4000192379
 10
237.5254950539
 20
30.0539404551
 10
238.1285185075
 20
30.6683894953
 10
238.7467686806
 20
31.240088007
 10
239.376946941
 20
31.7659857314
 10
240.0156910152
 20
32.2432767766
 10
240.659592927
 20
32.6694145882
 10
241.3052171811
 20
33.0421255368
 10
241.9491190929
 20
33.3594210481
 10
242.5878631671
 20
33.6196082133
 10
243.2180414275
 20
33.8212988212
 10
243.8362916006
 20
33.9634167653
 10
244.4393150542
 20
34.0452037848
 10
245.0238943972
 20
34.0662235106
 10
245.586910646
 20
34.0263637933
 10
246.1253598651
 20
33.9258373018
 10
246.6363691951
 20
33.7651803884
 10
247.1172121801
 20
33.5452502273
 10
247.5653233148
 20
33.267220241
 10
247.9783117322
 20
32.9325738397
 10
248.3539739606
 20
32.5430965069
 10
248.6903056794
 20
32.1008662726
 10
248.9855124134
 20
31.6082426265
 10
249.2380191068
 20
31.0678539289
 10
249.4464785273
 20
30.4825833872
 10
249.6097784537
 20
29.855553673
 10
249.7270476101
 20
29.1901102613
 10
249.797660315
 20
28.4898035804
 10
249.8212398189
 20
27.7583700695
 10
249.797660315
 20
26.9997122429
 10
249.7270476101
 20
26.2178778684
 10
249.6097784537
 20
25.4170383706
 10
249.4464785273
 20
24.6014665747
 10
249.2380191068
 20
23.7755139091
 10
248.9855124134
 20
22.9435871888
 10
248.6903056794
 20
22.1101251026
 10
248.3539739606
 20
21.2795745314
 10
247.9783117322
 20
20.4563668219
 10
247.5653233148
 20
19.6448941434
 10
247.1172121801
 20
18.8494860538
 10
246.6363691951
 20
18.0743863992
 10
246.1253598651
 20
17.3237306719
 10
245.586910646
 20
16.6015239448
 10
245.0238943972
 20
15.9116195033
 10
244.4393150542
 20
15.2576982862
 10
243.8362916006
 20
14.643249246
 10
243.2180414275
 20
14.0715507342
 10
242.5878631671
 20
13.5456530098
 10
241.9491190929
 20
13.0683619646
 10
241.3052171811
 20
12.642224153
 10
240.659592927
 20
12.2695132044
 10
240.0156910152
 20
11.9522176931
 10
239.376946941
 20
11.692030528
 10
238.7467686806
 20
11.49033992
 10
238.1285185075
 20
11.3482219759
 10
237.5254950539
 20
11.2664349564
 10
236.9409157109
 20
11.2454152306
 10
236.3778994621
 20
11.2852749479
 10
235.839450243
 20
11.3858014394
 10
235.328440913
 20
11.5464583528
 10
234.847597928
 20
11.7663885139
 10
234.3994867933
 20
12.0444185003
 10
233.9864983759
 20
12.3790649015
 10
233.6108361475
 20
12.7685422343
 10
233.2745044287
 20
13.2107724686
 10
232.9792976947
 20
13.7033961147
 10
232.7267910013
 20
14.2437848124
 10
232.5183315808
 20
14.8290553541
 10
232.3550316544
 20
15.4560850682
 10
232.237762498
 20
16.12152848
 10
232.1671497931
 20
16.8218351609
 10
232.1435702892
 20
17.5532686717
  0
LWPOLYLINE
  5
122
330
1F
100
AcDbEntity
  8
0
  6
Continuous
 62
     7
370
    25
100
AcDbPolyline
 90
       33
 70
   128
 43
0.0
 10
240.8868256922
 20
44.5228480401
 10
240.9199995697
 20
44.8690681825
 10
241.0207956936
 20
45.2613422672
 10
241.1877103063
 20
45.646023988
 10
241.4191359289
 20
46.0194086496
 10
241.712843806
 20
46.3779003535
 10
242.0660053703
 20
46.7180466288
 10
242.4752194829
 20
47.0365716808
 10
242.9365451881
 20
47.3304079391
 10
243.4455396673
 20
47.5967256
 10
243.9973010253
 20
47.8329598788
 10
244.5865154987
 20
48.0368357103
 10
245.2075086299
 20
48.2063896587
 10
245.8542999157
 20
48.3399888268
 10
246.5206604023
 20
48.4363465817
 10
247.2001726741
 20
48.4945349455
 10
247.8862926565
 20
48.5139935323
 10
248.5724126388
 20
48.4945349455
 10
249.2519249106
 20
48.4363465817
 10
249.9182853972
 20
48.3399888268
 10
250.565076683
 20
48.2063896587
 10
251.1860698142
 20
48.0368357103
 10
251.7752842876
 20
47.8329598788
 10
252.3270456456
 20
47.5967256
 10
252.8360401248
 20
47.3304079391
 10
253.29736583
 20
47.0365716808
 10
253.7065799426
 20
46.7180466288
 10
254.0597415069
 20
46.3779003535
 10
254.353449384
 20
46.0194086496
 10
254.5848750066
 20
45.646023988
 10
254.7517896193
 20
45.2613422672
 10
254.8525857432
 20
44.8690681825
 10
254.8857596207
 20
44.5228480401
  0
LWPOLYLINE
  5
123
330
1F
100
AcDbEntity
  8
0
  6
Continuous
 62
     1
370
    25
100
AcDbPolyline
 90
       54
 70
   128
 43
0.0
 10
250.9747475253
 20
38.2485819058
 10
251.2789119016
 20
38.0581509304
 10
251.793865326
 20
37.6747964309
 10
252.2726477874
 20
37.2362166269
 10
252.7135453687
 20
36.7439815203
 10
253.1149797711
 20
36.199853185
 10
253.4755139637
 20
35.6057794592
 10
253.7938573275
 20
34.9638869727
 10
254.0688702759
 20
34.276473534
 10
254.299568334
 20
33.5459999048
 10
254.4851256626
 20
32.775080991
 10
254.6248780146
 20
31.9664764824
 10
254.7183251129
 20
31.1230809732
 10
254.7651324411
 20
30.2479136005
 10
254.7651324411
 20
29.3441072362
 10
254.7183251129
 20
28.4148972727
 10
254.6248780146
 20
27.4636100404
 10
254.4851256626
 20
26.4936509007
 10
254.299568334
 20
25.5084920556
 10
254.0688702759
 20
24.511660118
 10
253.7938573275
 20
23.5067234877
 10
253.4755139637
 20
22.4972795769
 10
253.1149797711
 20
21.4869419329
 10
252.7135453687
 20
20.4793273021
 10
252.2726477874
 20
19.4780426835
 10
251.793865326
 20
18.486672416
 10
251.2789119016
 20
17.5087653481
 10
250.7296309137
 20
16.5478221332
 10
250.1479886458
 20
15.6072826985
 10
249.5360672261
 20
14.6905139312
 10
248.8960571747
 20
13.8007976256
 10
248.2302495612
 20
12.941318735
 10
247.5410278043
 20
12.1151539708
 10
246.8308591388
 20
11.3252607885
 10
246.1022857844
 20
10.5744668007
 10
245.3579158445
 20
9.865459655
 10
244.6004139703
 20
9.2007774129
 10
243.832491822
 20
8.5827994644
 10
243.0568983615
 20
8.0137380102
 10
242.2764100121
 20
7.4956301425
 10
241.4938207196
 20
7.030330553
 10
240.7119319505
 20
6.6195048936
 10
239.9335426636
 20
6.2646238134
 10
239.1614392906
 20
5.9669576946
 10
238.3983857613
 20
5.7275721048
 10
237.6471136091
 20
5.547323982
 10
236.9103121934
 20
5.426858568
 10
236.1906190721
 20
5.3666070975
 10
235.4906105596
 20
5.3667852552
 10
234.812792505
 20
5.4273924033
 10
234.1595913207
 20
5.548211584
 10
233.5333452977
 20
5.728810296
 10
232.936296234
 20
5.9685420427
 10
232.4331874956
 20
6.2298025388
  0
LWPOLYLINE
  5
124
330
1F
100
AcDbEntity
  8
0
  6
Continuous
 62
     1
370
    25
100
AcDbPolyline
 90
       54
 70
   128
 43
0.0
 10
291.3728485738
 20
14.9274168505
 10
291.7130003632
 20
14.7160485122
 10
292.2279537876
 20
14.3326940127
 10
292.706736249
 20
13.8941142087
 10
293.1476338303
 20
13.401879102
 10
293.5490682328
 20
12.8577507667
 10
293.9096024253
 20
12.2636770409
 10
294.2279457891
 20
11.6217845544
 10
294.5029587375
 20
10.9343711157
 10
294.7336567957
 20
10.2038974865
 10
294.9192141243
 20
9.4329785728
 10
295.0589664763
 20
8.6243740642
 10
295.1524135745
 20
7.780978555
 10
295.1992209027
 20
6.9058111822
 10
295.1992209027
 20
6.002004818
 10
295.1524135745
 20
5.0727948544
 10
295.0589664763
 20
4.1215076221
 10
294.9192141243
 20
3.1515484824
 10
294.7336567957
 20
2.1663896373
 10
294.5029587375
 20
1.1695576997
 10
294.2279457891
 20
0.1646210694
 10
293.9096024253
 20
-0.8448228414
 10
293.5490682328
 20
-1.8551604854
 10
293.1476338303
 20
-2.8627751162
 10
292.706736249
 20
-3.8640597348
 10
292.2279537876
 20
-4.8554300022
 10
291.7130003632
 20
-5.8333370702
 10
291.1637193753
 20
-6.7942802851
 10
290.5820771074
 20
-7.7348197198
 10
289.9701556878
 20
-8.651588487
 10
289.3301456363
 20
-9.5413047927
 10
288.6643380228
 20
-10.4007836833
 10
287.9751162659
 20
-11.2269484475
 10
287.2649476004
 20
-12.0168416297
 10
286.536374246
 20
-12.7676356175
 10
285.7920043061
 20
-13.4766427633
 10
285.034502432
 20
-14.1413250053
 10
284.2665802836
 20
-14.7593029538
 10
283.4909868231
 20
-15.3283644081
 10
282.7104984738
 20
-15.8464722758
 10
281.9279091812
 20
-16.3117718653
 10
281.1460204121
 20
-16.7225975247
 10
280.3676311252
 20
-17.0774786049
 10
279.5955277523
 20
-17.3751447236
 10
278.8324742229
 20
-17.6145303135
 10
278.0812020707
 20
-17.7947784362
 10
277.344400655
 20
-17.9152438503
 10
276.6247075337
 20
-17.9754953208
 10
275.9246990213
 20
-17.9753171631
 10
275.2468809666
 20
-17.914710015
 10
274.5936797824
 20
-17.7938908343
 10
273.9674337593
 20
-17.6132921223
 10
273.3703846956
 20
-17.3735603756
 10
272.87435202
 20
-17.1163910576
  0
ENDSEC
  0
SECTION
  2
OBJECTS
  0
DICTIONARY
  5
C
330
0
100
AcDbDictionary
281
     1
  3
ACAD_GROUP
350
D
  3
ACAD_LAYOUT
350
1A
  3
ACAD_MLINESTYLE
350
17
  3
ACAD_PLOTSETTINGS
350
19
  3
ACAD_PLOTSTYLENAME
350
E
  3
ACAD_SCALELIST
350
47
  3
DWGPROPS
350
125
  0
DICTIONARY
  5
D
102
{ACAD_REACTORS
330
C
102
}
330
C
100
AcDbDictionary
281
     1
  0
DICTIONARY
  5
1A
102
{ACAD_REACTORS
330
C
102
}
330
C
100
AcDbDictionary
281
     1
  3
Layout1
350
1E
  3
Layout2
350
26
  3
Model
350
22
  0
DICTIONARY
  5
17
102
{ACAD_REACTORS
330
C
102
}
330
C
100
AcDbDictionary
281
     1
  3
Standard
350
18
  0
DICTIONARY
  5
19
102
{ACAD_REACTORS
330
C
102
}
330
C
100
AcDbDictionary
281
     1
  0
ACDBDICTIONARYWDFLT
  5
E
102
{ACAD_REACTORS
330
C
102
}
330
C
100
AcDbDictionary
281
     1
  3
Normal
350
F
100
AcDbDictionaryWithDefault
340
F
  0
DICTIONARY
  5
47
102
{ACAD_REACTORS
330
C
102
}
330
C
100
AcDbDictionary
281
     1
  3
A0
350
48
  3
A1
350
49
  3
A2
350
4A
  3
A3
350
4B
  3
A4
350
4C
  3
A5
350
4D
  3
A6
350
4E
  3
A7
350
4F
  3
A8
350
50
  3
A9
350
51
  3
B0
350
52
  3
B1
350
53
  3
B2
350
54
  3
B3
350
55
  3
B4
350
56
  3
B5
350
57
  3
B6
350
58
  3
B7
350
59
  3
B8
350
5A
  3
B9
350
5B
  3
C0
350
5C
  3
C1
350
5D
  3
C2
350
5E
  3
C3
350
5F
  3
C4
350
60
  3
C5
350
61
  3
C6
350
62
  3
C7
350
63
  3
C8
350
64
  3
C9
350
65
  3
D0
350
66
  3
D1
350
67
  3
D2
350
68
  0
XRECORD
  5
125
102
{ACAD_REACTORS
330
C
102
}
330
C
100
AcDbXrecord
280
     1
  1
DWGPROPS COOKIE
  2

  3

  4

  6

  7

  8
b.kav
  9

300
=
301
=
302
=
303
=
304
=
305
=
306
=
307
=
308
=
309
=
 40
0.0
 41
2460745.521856088
 42
2460745.521856273
  1

 90
        0
  0
LAYOUT
  5
1E
102
{ACAD_REACTORS
330
1A
102
}
330
1A
100
AcDbPlotSettings
  1

  2
none_device
  4

  6

 40
0.0
 41
0.0
 42
0.0
 43
0.0
 44
0.0
 45
0.0
 46
0.0
 47
0.0
 48
0.0
 49
0.0
140
0.0
141
0.0
142
1.0
143
1.0
 70
   688
 72
     1
 73
     0
 74
     5
  7

 75
    16
147
1.0
148
0.0
149
0.0
100
AcDbLayout
  1
Layout1
 70
     1
 71
     1
 10
0.0
 20
0.0
 11
420.0
 21
297.0
 12
0.0
 22
0.0
 32
0.0
 14
1.0000000000E+20
 24
1.0000000000E+20
 34
1.0000000000E+20
 15
-1.0000000000E+20
 25
-1.0000000000E+20
 35
-1.0000000000E+20
146
0.0
 13
0.0
 23
0.0
 33
0.0
 16
1.0
 26
0.0
 36
0.0
 17
0.0
 27
1.0
 37
0.0
 76
     0
330
1B
  0
LAYOUT
  5
26
102
{ACAD_REACTORS
330
1A
102
}
330
1A
100
AcDbPlotSettings
  1

  2
none_device
  4

  6

 40
0.0
 41
0.0
 42
0.0
 43
0.0
 44
0.0
 45
0.0
 46
0.0
 47
0.0
 48
0.0
 49
0.0
140
0.0
141
0.0
142
1.0
143
1.0
 70
   688
 72
     1
 73
     0
 74
     5
  7

 75
    16
147
1.0
148
0.0
149
0.0
100
AcDbLayout
  1
Layout2
 70
     1
 71
     2
 10
0.0
 20
0.0
 11
0.0
 21
0.0
 12
0.0
 22
0.0
 32
0.0
 14
0.0
 24
0.0
 34
0.0
 15
0.0
 25
0.0
 35
0.0
146
0.0
 13
0.0
 23
0.0
 33
0.0
 16
1.0
 26
0.0
 36
0.0
 17
0.0
 27
1.0
 37
0.0
 76
     0
330
23
  0
LAYOUT
  5
22
102
{ACAD_REACTORS
330
1A
102
}
330
1A
100
AcDbPlotSettings
  1

  2
none_device
  4
Letter_(8.50_x_11.00_Inches)
  6

 40
6.35
 41
6.35
 42
6.35000508
 43
6.35000508
 44
215.9
 45
279.4
 46
0.0
 47
0.0
 48
0.0
 49
0.0
140
0.0
141
0.0
142
1.0
143
1.0
 70
  1712
 72
     1
 73
     0
 74
     0
  7

 75
     0
147
1.0
148
0.0
149
0.0
100
AcDbLayout
  1
Model
 70
     1
 71
     0
 10
0.0
 20
0.0
 11
279.4
 21
215.9
 12
0.0
 22
0.0
 32
0.0
 14
0.0
 24
0.0
 34
0.0
 15
279.4
 25
215.9
 35
0.0
146
0.0
 13
0.0
 23
0.0
 33
0.0
 16
1.0
 26
0.0
 36
0.0
 17
0.0
 27
1.0
 37
0.0
 76
     0
330
1F
331
29
  0
MLINESTYLE
  5
18
102
{ACAD_REACTORS
330
17
102
}
330
17
100
AcDbMlineStyle
  2
Standard
 70
     0
  3

 62
   256
 51
90.0
 52
90.0
 71
     2
 49
0.5
 62
   256
  6
BYLAYER
 49
-0.5
 62
   256
  6
BYLAYER
  0
ACDBPLACEHOLDER
  5
F
102
{ACAD_REACTORS
330
E
102
}
330
E
  0
SCALE
  5
48
102
{ACAD_REACTORS
330
47
102
}
330
47
100
AcDbScale
 70
     0
300
1:1
140
1.0
141
1.0
290
     1
  0
SCALE
  5
49
102
{ACAD_REACTORS
330
47
102
}
330
47
100
AcDbScale
 70
     0
300
1:2
140
1.0
141
2.0
290
     0
  0
SCALE
  5
4A
102
{ACAD_REACTORS
330
47
102
}
330
47
100
AcDbScale
 70
     0
300
1:4
140
1.0
141
4.0
290
     0
  0
SCALE
  5
4B
102
{ACAD_REACTORS
330
47
102
}
330
47
100
AcDbScale
 70
     0
300
1:5
140
1.0
141
5.0
290
     0
  0
SCALE
  5
4C
102
{ACAD_REACTORS
330
47
102
}
330
47
100
AcDbScale
 70
     0
300
1:8
140
1.0
141
8.0
290
     0
  0
SCALE
  5
4D
102
{ACAD_REACTORS
330
47
102
}
330
47
100
AcDbScale
 70
     0
300
1:10
140
1.0
141
10.0
290
     0
  0
SCALE
  5
4E
102
{ACAD_REACTORS
330
47
102
}
330
47
100
AcDbScale
 70
     0
300
1:16
140
1.0
141
16.0
290
     0
  0
SCALE
  5
4F
102
{ACAD_REACTORS
330
47
102
}
330
47
100
AcDbScale
 70
     0
300
1:20
140
1.0
141
20.0
290
     0
  0
SCALE
  5
50
102
{ACAD_REACTORS
330
47
102
}
330
47
100
AcDbScale
 70
     0
300
1:30
140
1.0
141
30.0
290
     0
  0
SCALE
  5
51
102
{ACAD_REACTORS
330
47
102
}
330
47
100
AcDbScale
 70
     0
300
1:40
140
1.0
141
40.0
290
     0
  0
SCALE
  5
52
102
{ACAD_REACTORS
330
47
102
}
330
47
100
AcDbScale
 70
     0
300
1:50
140
1.0
141
50.0
290
     0
  0
SCALE
  5
53
102
{ACAD_REACTORS
330
47
102
}
330
47
100
AcDbScale
 70
     0
300
1:100
140
1.0
141
100.0
290
     0
  0
SCALE
  5
54
102
{ACAD_REACTORS
330
47
102
}
330
47
100
AcDbScale
 70
     0
300
2:1
140
2.0
141
1.0
290
     0
  0
SCALE
  5
55
102
{ACAD_REACTORS
330
47
102
}
330
47
100
AcDbScale
 70
     0
300
4:1
140
4.0
141
1.0
290
     0
  0
SCALE
  5
56
102
{ACAD_REACTORS
330
47
102
}
330
47
100
AcDbScale
 70
     0
300
8:1
140
8.0
141
1.0
290
     0
  0
SCALE
  5
57
102
{ACAD_REACTORS
330
47
102
}
330
47
100
AcDbScale
 70
     0
300
10:1
140
10.0
141
1.0
290
     0
  0
SCALE
  5
58
102
{ACAD_REACTORS
330
47
102
}
330
47
100
AcDbScale
 70
     0
300
100:1
140
100.0
141
1.0
290
     0
  0
SCALE
  5
59
102
{ACAD_REACTORS
330
47
102
}
330
47
100
AcDbScale
 70
     0
300
1/128" = 1'-0"
140
0.0078125
141
12.0
290
     0
  0
SCALE
  5
5A
102
{ACAD_REACTORS
330
47
102
}
330
47
100
AcDbScale
 70
     0
300
1/64" = 1'-0"
140
0.015625
141
12.0
290
     0
  0
SCALE
  5
5B
102
{ACAD_REACTORS
330
47
102
}
330
47
100
AcDbScale
 70
     0
300
1/32" = 1'-0"
140
0.03125
141
12.0
290
     0
  0
SCALE
  5
5C
102
{ACAD_REACTORS
330
47
102
}
330
47
100
AcDbScale
 70
     0
300
1/16" = 1'-0"
140
0.0625
141
12.0
290
     0
  0
SCALE
  5
5D
102
{ACAD_REACTORS
330
47
102
}
330
47
100
AcDbScale
 70
     0
300
3/32" = 1'-0"
140
0.09375
141
12.0
290
     0
  0
SCALE
  5
5E
102
{ACAD_REACTORS
330
47
102
}
330
47
100
AcDbScale
 70
     0
300
1/8" = 1'-0"
140
0.125
141
12.0
290
     0
  0
SCALE
  5
5F
102
{ACAD_REACTORS
330
47
102
}
330
47
100
AcDbScale
 70
     0
300
3/16" = 1'-0"
140
0.1875
141
12.0
290
     0
  0
SCALE
  5
60
102
{ACAD_REACTORS
330
47
102
}
330
47
100
AcDbScale
 70
     0
300
1/4" = 1'-0"
140
0.25
141
12.0
290
     0
  0
SCALE
  5
61
102
{ACAD_REACTORS
330
47
102
}
330
47
100
AcDbScale
 70
     0
300
3/8" = 1'-0"
140
0.375
141
12.0
290
     0
  0
SCALE
  5
62
102
{ACAD_REACTORS
330
47
102
}
330
47
100
AcDbScale
 70
     0
300
1/2" = 1'-0"
140
0.5
141
12.0
290
     0
  0
SCALE
  5
63
102
{ACAD_REACTORS
330
47
102
}
330
47
100
AcDbScale
 70
     0
300
3/4" = 1'-0"
140
0.75
141
12.0
290
     0
  0
SCALE
  5
64
102
{ACAD_REACTORS
330
47
102
}
330
47
100
AcDbScale
 70
     0
300
1" = 1'-0"
140
1.0
141
12.0
290
     0
  0
SCALE
  5
65
102
{ACAD_REACTORS
330
47
102
}
330
47
100
AcDbScale
 70
     0
300
1-1/2" = 1'-0"
140
1.5
141
12.0
290
     0
  0
SCALE
  5
66
102
{ACAD_REACTORS
330
47
102
}
330
47
100
AcDbScale
 70
     0
300
3" = 1'-0"
140
3.0
141
12.0
290
     0
  0
SCALE
  5
67
102
{ACAD_REACTORS
330
47
102
}
330
47
100
AcDbScale
 70
     0
300
6" = 1'-0"
140
6.0
141
12.0
290
     0
  0
SCALE
  5
68
102
{ACAD_REACTORS
330
47
102
}
330
47
100
AcDbScale
 70
     0
300
1'-0" = 1'-0"
140
12.0
141
12.0
290
     0
  0
ENDSEC
  0
EOF
